Akor Tab Söz Çeviri Anasayfası
Akor|Tab|Söz|Nota Arşivi
Gitar Akorları | Tab,Söz ve Nota Anasayfası | En Yeni Şarkılar | En Popüler Şarkılar | Akor Cetveli

Bilgiler
 
Seslendiren ve Şarkı: Sıla - Yoruldum
Biçim: Bass Tab, Bass Gitar Tab - FULL
Tarih: 3 Nisan 2014 Perşembe
Gönderen: agahtas
Toplam Okuyan: 1.949 kişi
Bu Ay Okuyan: 83 kişi
Bu Hafta Okuyan: 7 kişi
 
Beğendiniz mi? Yoruldum Bass Tab sayfasını Şimdi paylaşın:
DİKKAT!
Yoruldum Bass Tab sayfasını düzgün görüntüleyemiyor olabilirsiniz.
Eğer böyle bir sıkıntınız varsa tıklayın.

Sıla - Yoruldum - Bass Tab


Puanlama:
 (2 kişi)

Yoruldum şarkısının diğer versiyonlarına bakın >>

Metin boyutu: ( + Büyült ) ( - Küçült)   
                           SILA-YORULDUM   BASS TAB-FULL    (AKUSTİKHANE)

--------------------------------------------------------------------------------------------------------------
-
--------11-------12-10-------11-------12-10-------11-------12-10-------11-------12-10-------11-------12-10----
-
------9----9---7-----------9----9---7-----------9----9---7-----------9----9---7-----------9----9---7----------
-
----7--------5-----------7--------5-----------7--------5-----------7--------5-----------7--------5------------
-


--------------------------------------------------------------------------------------------------------------
-
-----11-------12-10-------11-------12-10----------------------------------------------------------------------
-
---9----9---7-----------9----9---7----------------------------------------------------------------------------
-
-7--------5-----------7--------5-------------777-777-77777-555-555-55555-555-555-55555>888-888-888>10--777-777
-


--------------------------------------------------------------------------------------------------------------
---
--------------------------------------------------------------------------------------------------------------
---
----------------------------------555-55-000-333-------------------------------------------555-55-000-333-----
---
77777-777-777-77777>555-555-55555-----------------777-777-77777-777-777-77777>555-555-55555-------------------
---


--------------------------------------------------------------------------------------------------------------
---
--------------12-10-----9-7-----10-9--7--------------------12-10-----9-7-----10-9-----------------------------
---
-----9-7---10---------9-------7---------10-9------9-7---10---------9-------7------7---------------------------
---
-0-7-----8----------7-------5-----------------0-7-----8----------7-------5----------10-8-777-777-77777-555-555
-


--------------------------------------------------------------------------------------------------------------
---
--------------------------------------------------------------------------------------------------11------12-1
0--
------------------------------------------------------------------------------------------------9----9---7----
---
-55555-555-555-55555>888-888-888>10-777-777-77777-555-555-55555-555-555-55555>888-888-888>10--7--------5------
---


--------------------------------------------------------------------------------------------------------------
---
--------------------------------------------------------------------------------------------------------------
---
------------------------------------------555-55-000-333-------------------------------------------555-55-000-
333
777-777-77777-777-777-77777>555-555-55555----------------777-777-77777-777-777-77777>555-555-55555------------
---


--------------------------------------------------------------------------------------------------------------
---
--------------12-10-----9-7-----10-9--7--------------------12-10-----9-7-----10-9-----------------------------
---
-----9-7---10---------9-------7---------10-9------9-7---10---------9-------7------7---------------------------
---
-0-7-----8----------7-------5-----------------0-7-----8----------7-------5----------10-8-777-777-77777-555-555
-


--------------------------------------------------------------------------------------------------------------
---
--------------------------------------------------------------------------------------------------------------
---
--------------------------------------------------------------------------------------------------------------
---
-55555-555-555-55555>888-888-888>10-777-777-77777-555-555-55555-555-555-55555>888-888-888>10-777-777-77777-555
-


--------------------------------------------------------------------------------------------------------------
---
------------------------------------------------------------------------------------------------11-------12-10
---
----------------------------------------------------------------------------------------------9----9---7------
---
555-55555-555-555-55555>888-888-888>10-777-777-77777-555-555-55555-555-555-55555------------7--------5--------
---


--------------------------------------------------------------------------------------------------------------
---
-----11-------12-10-----------------9-------------------------------------------------------------------------
---
---9----9---7-------------------------------------------------------------------------------------------------
---
-7--------5-------------------------7-------------------------------------------------------------------------
---
Yoruldum Bass Tab, AkorMerkezi.com'da yayınlanmıştır.
http://www.akormerkezi.com


İçerik Kısa Linki:


Beğendiniz mi? Yoruldum Bass Tab sayfasını Şimdi paylaşın:


Yoruldum şarkısı için amatör kayıtları dinleyin: (Siz de Ekleyin)

Yoruldum Bass Tab için Komoçotoko'dan Gelenler
Aramalar: yoruldum, sila yoruldum bass tabb, sıla şarkıları bas tabları, sila yoruldum tab, 55555 555, yoruldum bass tab, yoruldum tab sila, sila yoruldum bass, sıla bass tab, sıla yoruldum akor
Sıla - Yoruldum için Kullanıcı Görüşleri

Henüz buraya yazan çizen olmamış. Yorum yapmak için buraya tıklayabilirsiniz.


Siz de Görüş Bildirin

Yorum yazma alanı Akor Merkezi üyelerine özel bir bölümdür. (Giriş Yap / Üye Ol / Şifremi Hatırlat)


Anket
f_u_r_kan01 soruyor:
sizce gitarda hangisi daha önemlidir








Sonuçlar | Sonuçlar & Yorumlar
Yeni Anket | Anketler



AkorMerkezi.com © 2022
Gizlilik Politikası - Kullanım Koşulları - Kurallar - Son Yorumlar - Rastgele

GitarAkor.com kolonisidir. Derleme 0,05 saniye.