Akor Tab Söz Çeviri Anasayfası
Akor|Tab|Söz|Nota Arşivi
Gitar Akorları | Tab,Söz ve Nota Anasayfası | En Yeni Şarkılar | En Popüler Şarkılar | Akor Cetveli

Bilgiler
 
Seslendiren ve Şarkı: Sıla - Yoruldum
Biçim: TAB - FULL
Tarih: 20 Kasım 2018 Salı
Gönderen: ates1907
Toplam Okuyan: 0 kişi
Bu Ay Okuyan: 0 kişi
Bu Hafta Okuyan: 0 kişi
 
Beğendiniz mi? Yoruldum Tab sayfasını Şimdi paylaşın:

Sıla - Yoruldum - Tab

  (versiyon 6)
Puanlama:
 (0 kişi)

Yoruldum şarkısının diğer versiyonlarına bakın >>

Metin boyutu: ( + Büyült ) ( - Küçült)   

E-----------------------------------------------------------------------------------
B-0-1-3-5-5-3-1-0-1-3-5----3-5-3-7-5-5-3-5-3-2-3------------------------------------
G---------------------------------------------------------------------------------- 
D-----------------------------------------------------------------------------------
A-----------------------------------------------------------------------------------

E-----------------------------------------------------------------------------------
B-7-8-8-7-8-10--12-12-10-8-7--5-7-7-8-7-5-5-5-5-7-8---------------------------------
G---------------------------------------------------------------------------------- 
D-----------------------------------------------------------------------------------
A-----------------------------------------------------------------------------------

E-----------------------------------------------------------------------------------
B-7-8-8-7-8-10--12-12-10-8-7----5-7-7-8-7-5-5-7-3-1-0-------------------------------
G-----------------------------------------------------------------------------------
D-----------------------------------------------------------------------------------
A-----------------------------------------------------------------------------------

E---------------------------------------------------------------------------------------
B--7--7-5-8--8-7-5---7-5----5----5---5-----0---7--7-5-8--8-7-5---7-5----5----5---5-----0
G-------------------------7----7---7---7-5----------------------------7----7---7---7-5--
D---------------------------------------------------------------------------------------
A---------------------------------------------------------------------------------------

Yoruldum Tab, AkorMerkezi.com'da yayınlanmıştır.
http://www.akormerkezi.com


İçerik Kısa Linki:


Beğendiniz mi? Yoruldum Tab sayfasını Şimdi paylaşın:


Yoruldum şarkısı için amatör kayıtları dinleyin: (Siz de Ekleyin)

Yoruldum Tab için Komoçotoko'dan Gelenler
Sıla - Yoruldum için Kullanıcı Görüşleri

Henüz buraya yazan çizen olmamış. Yorum yapmak için buraya tıklayabilirsiniz.


Siz de Görüş Bildirin

Yorum yazma alanı Akor Merkezi üyelerine özel bir bölümdür. (Giriş Yap / Üye Ol / Şifremi Hatırlat)


Anket
ishak95 soruyor:
Aynı fiyata squier mi almalı ibanez mi???








Sonuçlar | Sonuçlar & Yorumlar
Yeni Anket | Anketler



AkorMerkezi.com © 2022
Gizlilik Politikası - Kullanım Koşulları - Kurallar - Son Yorumlar - Rastgele

GitarAkor.com kolonisidir. Derleme 0,03 saniye.