Akor Tab Söz Çeviri Anasayfası
Akor|Tab|Söz|Nota Arşivi
Gitar Akorları | Tab,Söz ve Nota Anasayfası | En Yeni Şarkılar | En Popüler Şarkılar | Akor Cetveli

Bilgiler
 
Seslendiren ve Şarkı: Yavuz Bingöl - Sarı Gelin
Biçim: TAB - SOLO
Tarih: 05 Kasım 2010 Cuma
Gönderen: denizfeneri34
Toplam Okuyan: 25.812 kişi
Bu Ay Okuyan: 750 kişi
Bu Hafta Okuyan: 64 kişi
 
Beğendiniz mi? Sarı Gelin Tab sayfasını Şimdi paylaşın:

Yavuz Bingöl - Sarı Gelin - Tab


Puanlama:
 (24 kişi)

Sarı Gelin şarkısının diğer versiyonlarına bakın >>

Metin boyutu: ( + Büyült ) ( - Küçült)   
e|----------0--|-0-----0--0--|--0---1-0--------0----------
B|-------------|----3---3----|----------3-3-1-3------------
G|--2-2--2-----|-------------|-----------------------------
   Erzu  rum    çarşı paz ar   ney  ni mam ma na mam
e|-0--1---------------|-------------------|-----------------
B|------3--1-0-1-3----|-1--3-0-------1----|--0--1-----------
G|--------------------|---------2---------|-------2--2------
  Ney ni mam ma na man Ney ni mam ma na man sa rı ge lin
e|------------|-------------0-|-0-------0-----0------------
B|-1-1--3--3--|--3--1--3-1-3--|----1-3---------------------
G|------------|---------------|----------------------------
  İ çin de bir   kız ge zer      hop ni ne nöl sün
e|--0----1----------0---|-0--1--------------|---------------
B|---------3---3-1-3----|------3--1-0-1-3---|-1--3----------
G|----------------------|-------------------|---------------
    Sa  rı ge li na man  Sa  rı ge li na man  sa rı
e|-------------|---------------|----------0--|--0-----0--0-
B|-0-------1---|--0--1---------|-------------|-----3----3--
G|----2--------|-------2--2----|--2-2--2-----|-------------
   ge li na man  su na yar rim    e lin de     vit  ka lem
e|-0----1-0---------0-|-0--1--------------|-----------------
B|----------3---1-3---|------3--1-0-1-3---|-1--3------------
G|--------------------|-------------------|-----------------
  Ney ni mam ma na man Ney ni mam ma na man Ney ni
e|---------------|------------------------------------------
B|--0-------1----|-0--1-------------------------------------
G|-----2---------|------2--2-------------------------------
  mam ma na mam    Sa rı ge lin
e|-----------|--------------0--|-0-------0-----0------------
B|-1-1--3--3-|--3--1--3-1-3----|----1-3---------------------
G|-----------|-----------------|----------------------------
 Kat li me fer man ya zar       hop ni ne nöl sün
e|-0----1----------0---|-0--1-------------------------------
B|--------3--3-1-3-----|------3-1-0-1-3---------------------
G|---------------------|------------------------------------
    Sa  rı ge li na man  Sa  rı ge li na man
e|-----------------|----------------------------------------
B|-1--3-0-------1--|--0--1----------------------------------
G|---------2-------|-------2--2-----------------------------
  Sa  rı ge li na man  Su na ya rim
Sarı Gelin Tab, AkorMerkezi.com'da yayınlanmıştır.
http://www.akormerkezi.com


İçerik Kısa Linki:


Beğendiniz mi? Sarı Gelin Tab sayfasını Şimdi paylaşın:


Sarı Gelin şarkısı için amatör kayıtları dinleyin: (Siz de Ekleyin)

Sarı Gelin Tab için Komoçotoko'dan Gelenler
Aramalar: sari gelin kolay akor, yavuz bingöl solo tab, sarı gelin dogru akor, sarı gelin solo gitar şarkı, sarı gelin gitar akor, sarı geli tab, dari gelin gitar tab, sari gelin klasik gitar tab tablosu, sari gelin intro guitar, sarı gelin gitar notaları solo
Yavuz Bingöl - Sarı Gelin için Kullanıcı Görüşleri

Emeğinize sağlık..


Bu Yoruma Cevap Ver
emre..... | 06 Mart 2014 Perşembe 18:25
neresiyi yanlis cok guzel


Bu Yoruma Cevap Ver
RodrigoS | 30 Nisan 2012 Pazartesi 22:54
süper ötesi


Bu Yoruma Cevap Ver
gitaristrh | 11 Nisan 2012 Çarşamba 15:35
Yusuf neresi yanlış full dogru helal olsun.. ;)


Bu Yoruma Cevap Ver
No_MoRe | 14 Ekim 2011 Cuma 21:12
gayet güzel olmuş (:


Bu Yoruma Cevap Ver
çikireyiz | 31 Mart 2011 Perşembe 19:55
çok güzel ellerin dert görmesin


Bu Yoruma Cevap Ver
O.ALMALİ | 23 Ocak 2011 Pazar 03:45
harikasın süper olmuş


Bu Yoruma Cevap Ver
armoni_343 | 13 Aralık 2010 Pazartesi 17:43
çok güzzel olmuş gitarına saplık hocam....


Bu Yoruma Cevap Ver
shadow_87 | 10 Aralık 2010 Cuma 15:51
Doğrusunu biliyorsan sen yapabilirsin ,Bu parçayı nota düzeninin birebir taba dökülmüş halidir.


Bu Yoruma Cevap Ver
denizfeneri34 | 20 Kasım 2010 Cumartesi 00:02
yanlışşşşşşş


Bu Yoruma Cevap Ver
yusuf98 | 16 Kasım 2010 Salı 12:38


Siz de Görüş Bildirin

Yorum yazma alanı Akor Merkezi üyelerine özel bir bölümdür. (Giriş Yap / Üye Ol / Şifremi Hatırlat)


Anket
maNga33 soruyor:
fender cd 60ce elektro akustik iyi bir gitar mı








Sonuçlar | Sonuçlar & Yorumlar
Yeni Anket | Anketler




Radyo Dinle
AkorMerkezi.com © 2020
Gizlilik Politikası - Kullanım Koşulları - Kurallar - Son Yorumlar - Rastgele

GitarAkor.com kolonisidir. Derleme 0,03 saniye.