Akor Tab Söz Çeviri Anasayfası
Akor|Tab|Söz|Nota Arşivi
Gitar Akorları | Tab,Söz ve Nota Anasayfası | En Yeni Şarkılar | En Popüler Şarkılar | Akor Cetveli

Bilgiler
 
Seslendiren ve Şarkı: Zakkum - Anason
Biçim: TAB - HİÇBİRİ
Tarih: 03 Nisan 2012 Salı
Gönderen: LeXTaLioN
Toplam Okuyan: 17.711 kişi
Bu Ay Okuyan: 284 kişi
Bu Hafta Okuyan: 34 kişi
 
Beğendiniz mi? Anason Tab sayfasını Şimdi paylaşın:

Zakkum - Anason - Tab


Puanlama:
 (12 kişi)

Anason şarkısının diğer versiyonlarına bakın >>

Metin boyutu: ( + Büyült ) ( - Küçült)   
Zakkum - Anason


Başta çalınan soloların gitara uyarlanmış şekli  


e---------------------------------------------------------------------------------------------------
a---------------------------------------------------------------------------------------------------
d-10-13-12-10-12------------------------------------------------------------------------------------
g-----------------10-11--14-15-14-10-14-------------------------------------------------------------
b---------------------------------------17s--16--14--13--17--16--14--13--12--13--15--17--15--13--15-
e---------------------------------------------------------------------------------------------------


Şarkının 1:03 te bulunan solosu

 
e---------------------------------------------------------------------------------------------------
a---------------------------------------------------------------------------------------------------
d--7--5--3--2--3--5--7------------------------------------------------------------------------------
g---------------------------------------------------------------------------------------------------
b---------------------------------------------------------------------------------------------------
e---------------------------------------------------------------------------------------------------

Nakarattaki kısım:


e---------------------------------------------------------------------------------------------------
a---------------------------------------------------------------------------------------------------
d---------------------------------------------------------------------------------------------------
g---10--11--14---15--14--10--14---------------------------------------------------------------------
b---------------------------------17s--16--14--13--17--16--14--13--12--13--15--17--15--13--15-------
e---------------------------------------------------------------------------------------------------

Şarkının 2:06da başlayan kısmı


e---------------------------------------------------------------------------------------------------
a--8—7s—8—7s--10--7------8—7s—8—7s--10--7-------8—7s—8—7s--10--7-------8—7s—8—7s--10--7-------------
d---------------------------------------------------------------------------------------------------
g---------------------------------------------------------------------------------------------------
b---------------------------------------------------------------------------------------------------
e---------------------------------------------------------------------------------------------------


e---------------------------------------------------------------------------------------------------
a-5—5—0—0—0—0—0—0—1—3—5—5—5—5—3—5—5—5—5—5—5—5-7h8s--------------------------------------------------
d---------------------------------------------------------------------------------------------------
g---------------------------------------------------------------------------------------------------
b---------------------------------------------------------------------------------------------------
e---------------------------------------------------------------------------------------------------

Kulaktan çıkardığım ilk şarkımın tab'ı.Umarım beğenirsiniz beğenip beğenmemek sizin zevkinize ve
kulağınıza kalmış, fakat emeğimi sizinle paylaşmak istedim umarım beğenirisinz emeğe saygı...

LeXTaLioN  -  (Serhat DİLEK)
Anason Tab, AkorMerkezi.com'da yayınlanmıştır.
http://www.akormerkezi.com


İçerik Kısa Linki:


Beğendiniz mi? Anason Tab sayfasını Şimdi paylaşın:



Anason Tab için Komoçotoko'dan Gelenler
Aramalar: zakkum bilemedim tab, anason akor, tab zakkum, zakkum anason arpej, anason ta b, zakkum anason akor, zakkum anason tab ve akor, anason tabı, anason akor tab, zakkum anason tab
Zakkum - Anason için Kullanıcı Görüşleri

Serhat kardeşim senin youtubeki videoları acarmısın ya şarkıların akorlarını yeni yeni alıyordum açsan çok iyi olur kardeşim bir süre :D


Bu Yoruma Cevap Ver
Abdullah60 | 23 Temmuz 2014 Çarşamba 15:11
^^--------Kulaktan çıkardığım ilk şarkımın---------tab'ı.Umarım beğenirsiniz beğenip beğenmemek sizin zevkinize ve
kulağınıza kalmış, fakat emeğimi sizinle paylaşmak istedim umarım beğenirisinz emeğe saygı...

LeXTaLioN - (Serhat DİLEK)^ diye yazmasaydın deniyicekdim :D


Bu Yoruma Cevap Ver
Nezirs | 18 Mart 2013 Pazartesi 19:59
10 Eylül 2012 Pazartesi tarihinde epz yazmıştı:
okadar perde yoksa bile gitarında E telinde var 12. perde :) ordan devam edilebilir gibi geldi bana :):)
aslında arkadaş haklı olabilir gitarın kasası cuteway kasa değilse 17. perdeden ses alabilmesi imkansız.


Bu Yoruma Cevap Ver
LeXTaLioN | 10 Eylül 2012 Pazartesi 14:01
okadar perde yoksa bile gitarında E telinde var 12. perde :) ordan devam edilebilir gibi geldi bana :):)


Bu Yoruma Cevap Ver
epz | 10 Eylül 2012 Pazartesi 00:59
30 Mayıs 2012 Çarşamba tarihinde emreemin yazmıştı:
kardaş bune adam atmasyon yapmış B telinde 17 prdemi var :D

Elimden geleni bu...gitarımda 21 perde var ? seninkinde yoksa bilmiyorum


Bu Yoruma Cevap Ver
LeXTaLioN | 30 Mayıs 2012 Çarşamba 20:24
kardaş bune adam atmasyon yapmış B telinde 17 prdemi var :D



Bu Yoruma Cevap Ver
emreemin | 30 Mayıs 2012 Çarşamba 01:35


Siz de Görüş Bildirin

Yorum yazma alanı Akor Merkezi üyelerine özel bir bölümdür. (Giriş Yap / Üye Ol / Şifremi Hatırlat)


Anket
emrexc soruyor:
Hangisini Bestelemek İsterdiniz?













Sonuçlar | Sonuçlar & Yorumlar
Yeni Anket | Anketler




Radyo Dinle
AkorMerkezi.com © 2019
Gizlilik Politikası - Kullanım Koşulları - Kurallar - Son Yorumlar - Rastgele

GitarAkor.com kolonisidir. Derleme 0,06 saniye.