Akor Tab Söz Çeviri Anasayfası
Akor|Tab|Söz|Nota Arşivi
Gitar Akorları | Tab,Söz ve Nota Anasayfası | En Yeni Şarkılar | En Popüler Şarkılar | Akor Cetveli

Bilgiler
 
Seslendiren ve Şarkı: Zakkum - Anason
Biçim: TAB - SOLO
Tarih: 19 Kasım 2012 Pazartesi
Gönderen: xxbekoxx
Toplam Okuyan: 6.280 kişi
Bu Ay Okuyan: 104 kişi
Bu Hafta Okuyan: 8 kişi
 
Beğendiniz mi? Anason Tab sayfasını Şimdi paylaşın:

Zakkum - Anason - Tab

  (versiyon 9)
Puanlama:
 (23 kişi)

Anason şarkısının diğer versiyonlarına bakın >>

Metin boyutu: ( + Büyült ) ( - Küçült)   
e---------------------------------------------
b---------------------------------------------
g---3--5--7-7-7-7-7-7--8--7--5--3--7----------   2x
D---------------------------------------------
A---------------------------------------------
E---------------------------------------------






e-----------------------------------------------------------
b-----------------------------------------------------------
g--10--9--7--5--9--7--5--3-----3--5--7--7--9--7--5--3--7----
D-----------------------------------------------------------
A-----------------------------------------------------------
E-----------------------------------------------------------
Anason Tab, AkorMerkezi.com'da yayınlanmıştır.
http://www.akormerkezi.com


İçerik Kısa Linki:


Beğendiniz mi? Anason Tab sayfasını Şimdi paylaşın:



Anason Tab için Komoçotoko'dan Gelenler
Aramalar: anason akor solo, anason elektro akor, anason, zakkum solo, anason ver 1, anason tab, anason solo, anason solo tab, zakkum tab, zakkum
Zakkum - Anason için Kullanıcı Görüşleri

30 Kasım 2012 Cuma tarihinde meiyox yazmıştı:
e-----------------------------------------------------------
b-----------------------------------------------------------
g--10--9--7--5--9--7--5--3-----3--5--7--7--9--7--5--3--7-5-5-3 -
D-----------------------------------------------------------
A-----------------------------------------------------------
E-----------------------------------------------------------

diye bitebilir
afedersin karıştırmışım çok güzel olmuş eline sağlık kardeş


Bu Yoruma Cevap Ver
meiyox | 30 Kasım 2012 Cuma 23:56
e-----------------------------------------------------------
b-----------------------------------------------------------
g--10--9--7--5--9--7--5--3-----3--5--7--7--9--7--5--3--7-5-5-3 -
D-----------------------------------------------------------
A-----------------------------------------------------------
E-----------------------------------------------------------

diye bitebilir


Bu Yoruma Cevap Ver
meiyox | 30 Kasım 2012 Cuma 23:54


Siz de Görüş Bildirin

Yorum yazma alanı Akor Merkezi üyelerine özel bir bölümdür. (Giriş Yap / Üye Ol / Şifremi Hatırlat)


Anket
_e_m_r_e_ soruyor:
Bende programla hayko gibi evimden müzik üretebilirim aslında ama yapmıyorum işte








Sonuçlar | Sonuçlar & Yorumlar
Yeni Anket | Anketler




Radyo Dinle
AkorMerkezi.com © 2019
Gizlilik Politikası - Kullanım Koşulları - Kurallar - Son Yorumlar - Rastgele

GitarAkor.com kolonisidir. Derleme 0,06 saniye.