Akor Tab Söz Çeviri Anasayfası
Akor|Tab|Söz|Nota Arşivi
Gitar Akorları | Tab,Söz ve Nota Anasayfası | En Yeni Şarkılar | En Popüler Şarkılar | Akor Cetveli

Bilgiler
 
Seslendiren ve Şarkı: Zakkum - Ben Ne Yangınlar Gördüm
Biçim: TAB - SOLO
Tarih: 06 Ekim 2014 Pazartesi
Gönderen: İlkay Köse
Toplam Okuyan: 2.630 kişi
Bu Ay Okuyan: 243 kişi
Bu Hafta Okuyan: 28 kişi
 
Beğendiniz mi? Ben Ne Yangınlar Gördüm Tab sayfasını Şimdi paylaşın:

Zakkum - Ben Ne Yangınlar Gördüm - Tab

  (versiyon 3)
Puanlama:
 (3 kişi)

Ben Ne Yangınlar Gördüm şarkısının diğer versiyonlarına bakın >>

Metin boyutu: ( + Büyült ) ( - Küçült)   
e----------------------------------------|
B--------------5-------------------------|
G-7---7-7--7-7---7-5--7--5--------5-7----|
D--------------------------8--7-8--------|
A----------------------------------------|
E----------------------------------------|

e----------------------------------------|
B--------------5------------------6-5----|
G-7---7-7--7-7---7-5--7--5------------7--|
D--------------------------8--7-8--------|
A----------------------------------------|
E----------------------------------------|

e------------------------------------------------------------------------------------|
B--------------5---------------------------------------------------------------------|
G-7---7-7--7-7---7-5--7---5--------5-7--7---5--------5-------7---5----------5--------|
D--------------------------8--7-8-------------8--7-8----8-7--------8--7-8-------8-7--|
A------------------------------------------------------------------------------------|
E------------------------------------------------------------------------------------|

Ben Ne Yangınlar Gördüm Tab, AkorMerkezi.com'da yayınlanmıştır.
http://www.akormerkezi.com


İçerik Kısa Linki:


Beğendiniz mi? Ben Ne Yangınlar Gördüm Tab sayfasını Şimdi paylaşın:



Ben Ne Yangınlar Gördüm Tab için Komoçotoko'dan Gelenler
Aramalar: ben ne yangınlar gördüm gitar notaları solo, ne yangınlar gördüm tab, zakkum ben ne yangınlar gördüm solo, ben ne yangınlar gördüm, ben ne yangınlar gördüm solo akor, ben ne yangınlar gördüm solo, ben.ne yanginlar gordum solo, zakkum ben ne yangınlar gördüm tab, ben ne yangınlar akor, ben ne yangınlar gördüm akor tab
Zakkum - Ben Ne Yangınlar Gördüm için Kullanıcı Görüşleri

Henüz buraya yazan çizen olmamış. Yorum yapmak için buraya tıklayabilirsiniz.


Siz de Görüş Bildirin

Yorum yazma alanı Akor Merkezi üyelerine özel bir bölümdür. (Giriş Yap / Üye Ol / Şifremi Hatırlat)


Anket
Henüz'Amatör' soruyor:
Süper kupayı kim kazanır, gitaristler?







Sonuçlar | Sonuçlar & Yorumlar
Yeni Anket | Anketler




Radyo Dinle
AkorMerkezi.com © 2019
Gizlilik Politikası - Kullanım Koşulları - Kurallar - Son Yorumlar - Rastgele

GitarAkor.com kolonisidir. Derleme 0,05 saniye.