Akor Tab Söz Çeviri Anasayfası
Akor|Tab|Söz|Nota Arşivi
Gitar Akorları | Tab,Söz ve Nota Anasayfası | En Yeni Şarkılar | En Popüler Şarkılar | Akor Cetveli

Bilgiler
 
Seslendiren ve Şarkı: Zakkum - Ben Ne Yangınlar Gördüm
Biçim: Akor, Gitar Akorları - SOLO
Tarih: 20 Mart 2014 Perşembe
Gönderen: colakogluemre
Toplam Okuyan: 7.238 kişi
Bu Ay Okuyan: 132 kişi
Bu Hafta Okuyan: 14 kişi
 
Beğendiniz mi? Ben Ne Yangınlar Gördüm Akor sayfasını Şimdi paylaşın:
DİKKAT!
Ben Ne Yangınlar Gördüm Akor sayfasını düzgün görüntüleyemiyor olabilirsiniz.
Eğer böyle bir sıkıntınız varsa tıklayın.

Zakkum - Ben Ne Yangınlar Gördüm - Akor

  (versiyon 6)
Puanlama:
 (2 kişi)

Ben Ne Yangınlar Gördüm şarkısının diğer versiyonlarına bakın >>

Metin boyutu: ( + Büyült ) ( - Küçült)   



(Orjinal tondur. Transpoze için aşağıda paylaştığım bilgilerden faydalanabilirsi
niz.)

8/8 lik 2 farklı ritim ve arpej ile çalınıyor...

Intro:  Cm  Gm  Cm  Gm
        Cm  Gm  G#  Gm 

                   Cm                          Gm                         
e[----------------|---------------------------|---------------------------|
B[----------------|---------------------------|---------------------------|
G[------0--1--3---|--3/5---5--5--5--5--5^7^5--|--3--3----1--0--1--3--3/5--|
D[----------------|---------------------------|---------------------------|
A[----------------|---------------------------|---------------------------|
E[----------------|---------------------------|---------------------------|

  Cm                                   Gm
e[------------------------------------|-----------------------------------|
B[------------------------------------|-----------------------------------|
G[--3^5---5---5---5---5---7---5^7^5---|---3---3----1---0---1---8---7^8^7--|
D[------------------------------------|-----------------------------------|
A[------------------------------------|-----------------------------------|
E[------------------------------------|-----------------------------------|

  Cm                                       Gm                          
e[----------------------------------------|-------------------------------|
B[----------------------------------------|-------------------------------|
G[--5---3/5---5---5---5---5---7---5^7^5---|---3---3-----1--0--1---3--3/5--|
D[----------------------------------------|-------------------------------|
A[----------------------------------------|-------------------------------|
E[----------------------------------------|-------------------------------|

  G#                           Gm
e[----------------------------|-------------------------------------------|
B[----------------------------|-------------------------------------------|
G[--------5-----3---1---------|----0^1---3---1^3^1^0---0----8----7^8^7----|
D[----------------------------|-------------------------------------------|
A[----------------------------|-------------------------------------------|
E[----------------------------|-------------------------------------------|

  Cm                                    Gm
e[-------------------------------------|----------------------------------|
B[-------------------------------------|----------------------------------|
G[---5---3/5----5---5---5---5---5^7^5--|---3---3----1---0---1---3---3/5---|
D[-------------------------------------|----------------------------------|
A[-------------------------------------|----------------------------------|
E[-------------------------------------|----------------------------------|

  Cm                                    Gm                                
e[-------------------------------------|----------------------------------|
B[-------------------------------------|----------------------------------|
G[---3^5---5---5---5---5---7--5^7^5----|----3---3----1--0--1--8--7^8^7----|
D[-------------------------------------|----------------------------------|
A[-------------------------------------|----------------------------------|
E[-------------------------------------|----------------------------------|

  Cm                                    Gm
e[-------------------------------------|----------------------------------|
B[-------------------------------------|----------------------------------|
G[----5--3/5--5--5--5--5--7--5^7^5-----|---3---3-----1---0---1---3---3/5--|
D[-------------------------------------|----------------------------------|
A[-------------------------------------|----------------------------------|
E[-------------------------------------|----------------------------------|

  G#                               Gm
e[--------------------------------|---------------------------------------|
B[--------------------------------|---------------------------------------|
G[------5------3---1--------------|----0^1---3-----1^3^1^0--0-------------|
D[--------------------------------|---------------------------------------|
A[--------------------------------|---------------------------------------|
E[--------------------------------|---------------------------------------|


Cm       Gm    Cm   Gm
Sen bana bakma ilk değil bu
    Fm      Gm    Fm          Gm 
Gidenin kazandığı hileli bir oyun bu
Cm       Gm     Cm           Gm             (A)
Sen bana bakma belkide en doğrusu bu
Fm     Gm       Fm             Gm 
Ben sonbaharım döktüğüm son yaprak bu


Cm                      Gm
Ben ne yangınlar gördüm böylece bırak beni
Cm                    Gm
Sen ateşten korkarsın kaç kurtar kendini
Cm                   Gm                      (N)
Ben ne yaralar aldım hiç biri öldürmedi
G#         Gm
Sen de git unut beni

Tekrar: Intro
        (A)
        (N) x3 

=============================================================================

     Bu paylaşım ile birlikte hazırladığım GuitarPro dosyasına 
"Zakkum Guitar Pro Tabları" kısmından ulaşabilirsiniz. Arpej 
çalamayan arkadaşlar için Guitar Pro dosyası içerisine 2 farklı
ritim yazdım. Yazmış olduğum 2. ritim arpej çalınan bölümlerde
kullanılabilir.


Transpozisyon Aktarım

              +                        +          +      +
A   A#   B   (Cm)   C#   D   D#   E   (Fm)   F#  (Gm)   (G#)
A#  B    C   (C#m)  D    D#  E    F   (F#m)  G   (G#m)  (A)
B   C    C#  (Dm)   D#   E   F    F#  (Gm)   G#  (Am)   (A#)
C   C#   D   (D#m)  E    F   F#   G   (G#m)  A   (A#m)  (B)
C#  D    D#  (Em)   F    F#  G    G#  (Am)   A#  (Bm)   (C)
D   D#   E   (Fm)   F#   G   G#   A   (A#m)  B   (Cm)   (C#)
D#  E    F   (F#m)  G    G#  A    A#  (Bm)   C   (C#m)  (D)
E   F    F#  (Gm)   G#   A   A#   B   (Cm)   C#  (Dm)   (D#)
F   F#   G   (G#m)  A    A#  B    C   (C#m)  D   (D#m)  (E)
F#  G    G#  (Am)   A#   B   C    C#  (Dm)   D   (Em)   (F) <---
G   G#   A   (A#m)  B    C   C#   D   (D#m)  E   (Fm)   (F#)
G#  A    A#  (Bm)   C    C#  D    D#  (Em)   F   (F#m)  (G)


     Hazır paylaşım yapıyorken bilmeyen arkadaşlarım için de biraz bilgi
paylaşmak istedim. İşlerinizi biraz olsun kolaylaştırabilmek adına.

     Bu şarkı içerisinde bulunan 4 farklı akoru yukarı kısımdan yardım
alarak kolay bir şekilde transpoze edebilirsiniz. Henüz bare basamayan
arkadaşlar yukarı tabloda yan tarafına ok işareti koyduğum sırada
bulunan akorları kullanırlarsa biraz daha işleri kolaylaşacaktır.

     Bu sırada Am, Dm, Em ve F akorları bulunmaktadır.

Cm yerine Am
Gm yerine Em
Fm yerine Dm
G# yerine F akorlarını kullanabilirsiniz.

     Burada bulunan Fa Major akoru yine bareli olarak basılması gereken
bir akor ama şarkı içerisinde sadece 1 yerde kullanılıyor ve bu kısımda
Fa Major akorunu kullanırken en azından yarım bare basmayı denerseniz
kendi gelişiminiz için faydalı olacaktır.

     Yarım bare ile Fa major akorunu basarken 1 numaralı parmağınızı
yani işaret parmağınızı en alt iki tel olan mi ve si tellerinde 1. perde
üzerine iki teli birden basacak şekilde yerleştirmeniz gerekiyor.
Diğer parmaklarınız ile beraber bastığınız zaman 

e[---1---- 1 numaralı parmak
B[---1---- 1 numaralı parmak
G[---2---- 2 numaralı parmak
D[---3---- 4 numaralı parmak
A[---3---- 3 numaralı parmak
E[---0----   boş tel

Olarak kullanabilirsiniz.

       Bu şarkıyı paylaşan bazı arkadaşlar orjinal ton da kullanılan
Fm akoru yerine G# akorunu yazmışlar. Bu üç sesli olan 2 akor arasında
ki benzerlik; Fm akoru içerisinde bulunan Fa, Do ve Sol# sesleri ile
G# akoru içerisinde bulunan Sol#, Re# ve Do sesleri. Aslında iki farklı
akor fakat bu iki farklı akor içerisinde bulunan Sol# ve Do seslerinin
aynı olması nedeniyle arkadaşlar yanılmışlar sanırım. Doğru yazan bir
arkadaş da olmuş. Ben sadece derlemek, solosunu eklemek ve ayrıca bir
hazırlamış olduğum GuitarPro dosyasından sizlerinde faydalanabilmesini
istedim.

       Son olarak şarkıyı transpoze yaptıktan sonra kapo kullanarak
kendi ses tonunuza en yakın olacak pozisyonda çalışmanız mümkün. Sadece
Fa major akorunda yarım bare kullanırsınız. Kendi ses tonunuzda
çalışmanız önemli...

       Müzik ile alakalı konularda aklınıza takılan sorulara cevap vermeyi
isterim. Herkese iyi çalışmalar...


Ben Ne Yangınlar Gördüm Akor, AkorMerkezi.com'da yayınlanmıştır.
http://www.akormerkezi.com


İçerik Kısa Linki:


Beğendiniz mi? Ben Ne Yangınlar Gördüm Akor sayfasını Şimdi paylaşın:


Zakkum - Ben Ne Yangınlar Gördüm KULLANILAN AKORLAR (Beta)
Cmx 3 5 5 4 3x x 5 5 4 3
Gm3 5 5 3 3 3x x 0 3 3 3
G#4 6 6 5 4 4
Fmx 3 3 1 1 1x x 3 1 1 1
A0 0 2 2 2 00 4 x 2 5 05 7 7 6 5 5
A#1 1 3 3 3 1x 1 3 3 3 1x x 0 3 3 1
Bx 2 4 4 4 2
C#4 4 6 6 6 4x 4 3 1 2 1x 4 6 6 6 4
Dx 5 4 2 3 2x 9 7 7 x 22 0 0 2 3 2
D#x 1 1 3 4 3x x 1 3 4 3x x 5 3 4 3
E0 2 2 1 0 0x 7 6 4 5 0
F#2 4 4 3 2 2x 4 4 3 2 2x x 4 3 2 2
Em0 2 2 0 0 03 x 2 0 0 0x 2 5 x x 0
Amx 0 2 2 1 0x 0 7 5 5 5x 3 2 2 1 0
Dmx 0 0 2 3 1
Şarkıda kullanılan akorların farklı şekillerde basılışlarıdır. (Detaylı bilgi)


Ben Ne Yangınlar Gördüm Akor için Komoçotoko'dan Gelenler
Aramalar: ben ne yanginlar gordum do re sekli nota, ben ne yangınlar gördüm akor dm am, zakkum ne yangınlar, ben ne yangınlar gördüm amator, ben ne yangınlar gördüm solo tab, ben ne yanginlar girdun, zakkum ben be yanginlar, zakkum be, ben ne yanginlar gördüm gitar solo, zakkum bn ne yangınlar gordm
Zakkum - Ben Ne Yangınlar Gördüm için Kullanıcı Görüşleri

Hem Açıklayıcı , Hem Faydalı Hem de Güzel Olmuş


Bu Yoruma Cevap Ver
gitaristyigit | 30 Ekim 2014 Perşembe 18:16


Siz de Görüş Bildirin

Yorum yazma alanı Akor Merkezi üyelerine özel bir bölümdür. (Giriş Yap / Üye Ol / Şifremi Hatırlat)


Anket
Süvari' soruyor:
Cort sizce nasıl bir gitar?











Sonuçlar | Sonuçlar & Yorumlar
Yeni Anket | Anketler




Radyo Dinle
AkorMerkezi.com © 2019
Gizlilik Politikası - Kullanım Koşulları - Kurallar - Son Yorumlar - Rastgele

GitarAkor.com kolonisidir. Derleme 0,06 saniye.