Akor Tab Söz Çeviri Anasayfası
Akor|Tab|Söz|Nota Arşivi
Gitar Akorları | Tab,Söz ve Nota Anasayfası | En Yeni Şarkılar | En Popüler Şarkılar | Akor Cetveli

Bilgiler
 
Seslendiren ve Şarkı: Barış Manço - Anlıyorsun Değil mi
Biçim: TAB - SOLO
Tarih: 23 Şubat 2012 Perşembe
Gönderen: crossline
Toplam Okuyan: 7.088 kişi
Bu Ay Okuyan: 84 kişi
Bu Hafta Okuyan: 13 kişi
 
Beğendiniz mi? Anlıyorsun Değil mi Tab sayfasını Şimdi paylaşın:

Barış Manço - Anlıyorsun Değil mi - Tab

  (versiyon 2)
Puanlama:
 (5 kişi)

Anlıyorsun Değil mi şarkısının diğer versiyonlarına bakın >>

Metin boyutu: ( + Büyült ) ( - Küçült)   
E-------5-5-7--8-8-7-5--7-7------5----------------------------5-5-4-7-5-----
B--5-5----------------------8-8-----5-5---6-6-6-5---5-5-5-------------------
G--------------------------------------------7------------------------------
D---------------------------------------------------------------------------
A---------------------------------------------------------------------------
E---------------------------------------------------------------------------


E-------5-5-7--8-8-7-5--7-7------5----------------------------5-5-4-7-5-----
B--5-5----------------------8-8-----5-5---6-6-6-5---5-5-5-------------------
G--------------------------------------------7------------------------------
D---------------------------------------------------------------------------
A---------------------------------------------------------------------------
E---------------------------------------------------------------------------

E--5-4--5-4-------5-4-------5-4-5-4-------5-4---------------5-4---------8-7-5-4-5-
B------------6-6-------6-5-----------6-6-------6-5--5-5-6-6-----6-5-5-5-----------
G---------------------------------------------------------------------------------
D---------------------------------------------------------------------------------
A---------------------------------------------------------------------------------
E---------------------------------------------------------------------------------

E-3-5-6-5-3-5-----5-3--------   E-3-5-6-5-3-5-----5-3--------               
B-------------4-5-----5-4-2--   B-------------4-5-----5-4-2--
G----------------------------   G----------------------------
D----------------------------   D----------------------------
A----------------------------   A----------------------------
E----------------------------   E----------------------------
Anlıyorsun Değil mi Tab, AkorMerkezi.com'da yayınlanmıştır.
http://www.akormerkezi.com


İçerik Kısa Linki:


Beğendiniz mi? Anlıyorsun Değil mi Tab sayfasını Şimdi paylaşın:


Anlıyorsun Değil mi Tab için Komoçotoko'dan Gelenler
Aramalar: anlıyorsun değil mi solo tab notaları, anlıyorsun değil mi notaları melodika, anlıyorsun değil mi altyapı, anlıyorsun değil mi melodika notaları, barış manço anlıyorsun değilmi melodika notalar, anlıyorsun değilmi barış manço melodika ile çalım, Barış manço anlıyorsun değil mi solo nota, anlıyorsun değilmi melodika notaları, barış manço anlıyorsun değil mi melodika notaları, Barış Manço anlıyorsun değil mi?
Barış Manço - Anlıyorsun Değil mi için Kullanıcı Görüşleri

Henüz buraya yazan çizen olmamış. Yorum yapmak için buraya tıklayabilirsiniz.


Siz de Görüş Bildirin

Yorum yazma alanı Akor Merkezi üyelerine özel bir bölümdür. (Giriş Yap / Üye Ol / Şifremi Hatırlat)




Anket
guitar hero 3 soruyor:
Gitarınız Hangi Renk?










Sonuçlar | Sonuçlar & Yorumlar
Yeni Anket | Anketler




Radyo Dinle
AkorMerkezi.com © 2019
Gizlilik Politikası - Kullanım Koşulları - Kurallar - Son Yorumlar - Rastgele

GitarAkor.com kolonisidir. Derleme 0,03 saniye.