Akor Tab Söz Çeviri Anasayfası
Akor|Tab|Söz|Nota Arşivi
Gitar Akorları | Tab,Söz ve Nota Anasayfası | En Yeni Şarkılar | En Popüler Şarkılar | Akor Cetveli

Bilgiler
 
Seslendiren ve Şarkı: Barış Manço - Anlıyorsun Değil mi
Biçim: TAB - FULL
Tarih: 03 Ağustos 2012 Cuma
Gönderen: aqualh
Toplam Okuyan: 2.945 kişi
Bu Ay Okuyan: 47 kişi
Bu Hafta Okuyan: 7 kişi
 
Beğendiniz mi? Anlıyorsun Değil mi Tab sayfasını Şimdi paylaşın:

Barış Manço - Anlıyorsun Değil mi - Tab

  (versiyon 3)
Puanlama:
 (3 kişi)

Anlıyorsun Değil mi şarkısının diğer versiyonlarına bakın >>

Metin boyutu: ( + Büyült ) ( - Küçült)   
E------------------------------------------------------------
B------------------------------------------------------------
G----5-5-7-7-8--8-7-5-7-3-3-5-----------------------5-5-4-7-5
D-5-5-------------------------5-5-6-6--6-5-3-5--5-5----------
A------------------------------------------------------------
E------------------------------------------------------------

E------------------------------------------------------------------ _
B------------------------------------------------------------------  |
G-5-4-5-4---5-4-----5-4-5-4---5-4-------------------------5-5-4-7-5  | 
D--------6-6---6-5---------6-6---6-5--5-5-6-6-6-5-3-5--5-5---------   > x2
A------------------------------------------------------------------  | 
E------------------------------------------------------------------ _|
                                                                      
E---------------------------
B---------------------------
G-5-7-8-7-5-7--3-5-7-5-3-2-0
D---------------------------
A---------------------------
E---------------------------

Kendi emeğimdir, yorumlar için şimdiden teşekkürler
Anlıyorsun Değil mi Tab, AkorMerkezi.com'da yayınlanmıştır.
http://www.akormerkezi.com


İçerik Kısa Linki:


Beğendiniz mi? Anlıyorsun Değil mi Tab sayfasını Şimdi paylaşın:


Anlıyorsun Değil mi Tab için Komoçotoko'dan Gelenler
Aramalar: hayko anlıyorsun değil mi tab, anlıyorsun değil mi, barış manço anlıyorsun değil mi, barış manço tab, anlıyorsun değil mi tab, barış manço anlıyorsun değil mi tab
Barış Manço - Anlıyorsun Değil mi için Kullanıcı Görüşleri

Henüz buraya yazan çizen olmamış. Yorum yapmak için buraya tıklayabilirsiniz.


Siz de Görüş Bildirin

Yorum yazma alanı Akor Merkezi üyelerine özel bir bölümdür. (Giriş Yap / Üye Ol / Şifremi Hatırlat)


Anket
RiVa soruyor:
Hangi Akustik Gitarı Almalıyım ?









Sonuçlar | Sonuçlar & Yorumlar
Yeni Anket | Anketler




Radyo Dinle
AkorMerkezi.com © 2019
Gizlilik Politikası - Kullanım Koşulları - Kurallar - Son Yorumlar - Rastgele

GitarAkor.com kolonisidir. Derleme 0,05 saniye.