Akor Tab Söz Çeviri Anasayfası
Akor|Tab|Söz|Nota Arşivi
Gitar Akorları | Tab,Söz ve Nota Anasayfası | En Yeni Şarkılar | En Popüler Şarkılar | Akor Cetveli

Bilgiler
 
Seslendiren ve Şarkı: Emre Aydın - Hoşçakal
Biçim: TAB - INTRO
Tarih: 27 Ekim 2010 Çarşamba
Gönderen: haykopat
Toplam Okuyan: 7.209 kişi
Bu Ay Okuyan: 35 kişi
Bu Hafta Okuyan: 8 kişi
 
Beğendiniz mi? Hoşçakal Tab sayfasını Şimdi paylaşın:

Emre Aydın - Hoşçakal - Tab

  (versiyon 2)
Puanlama:
 (14 kişi)

Hoşçakal şarkısının diğer versiyonlarına bakın >>

Metin boyutu: ( + Büyült ) ( - Küçült)   
E--4-0-2---2--0-------0-2--4-2-0-----0------------------------------------------------
B------------4----2-4--------------4---4-2-2-----------------------------------
G---------------------------------------------------------------------------
D--------------------------------------------------------------------------
A------------------------------------------------------------------------
E------------------------------------------------------------------------
Hoşçakal Tab, AkorMerkezi.com'da yayınlanmıştır.
http://www.akormerkezi.com


İçerik Kısa Linki:


Beğendiniz mi? Hoşçakal Tab sayfasını Şimdi paylaşın:


Hoşçakal şarkısı için amatör kayıtları dinleyin: (Siz de Ekleyin)

Hoşçakal Tab için Komoçotoko'dan Gelenler
Aramalar: hoşcakal tab, hoscakal emre aydin akor, emre+aydın+hoşçakal+tabları, hoscakal emre, emre aydın hoşçakal tab akor, hoşçakal emre aydın tab, hoşçakal tab emre aydın, emre aydın hoşçakal tab, Emre Aydin hoscakal acoustic tab, hoşçakal+tab
Emre Aydın - Hoşçakal için Kullanıcı Görüşleri

ya bunlar nasıl tab çözemedim biri yardım etsin hangi notanın ölçüsü kaç bilinmiyor.


Bu Yoruma Cevap Ver
fecriati | 28 Şubat 2011 Pazartesi 23:16
19 Aralık 2010 Pazar tarihinde Astrid yazmıştı:
E--4-0-2---2--0-------0-2--4-0-2-----0------------------------------------------------
B------------4----2-4--------------4---4-2-2-----------------------------------
G---------------------------------------------------------------------------
D--------------------------------------------------------------------------
A------------------------------------------------------------------------
E------------------------------------------------------------------------
şeklinde sanırsam
evet orayı yanlış yazmışım 2 ile 0 ın yeri değişicek :) teşekkürler


Bu Yoruma Cevap Ver
haykopat | 26 Aralık 2010 Pazar 22:18
E--4-0-2---2--0-------0-2--4-0-2-----0------------------------------------------------
B------------4----2-4--------------4---4-2-2-----------------------------------
G---------------------------------------------------------------------------
D--------------------------------------------------------------------------
A------------------------------------------------------------------------
E------------------------------------------------------------------------
şeklinde sanırsam


Bu Yoruma Cevap Ver
Astrid | 19 Aralık 2010 Pazar 20:22
19 Kasım 2010 Cuma tarihinde sse1 yazmıştı:
Son kismi tam olmamis gibi, ama yine emegi saygi:D
sen öyle diyosan öyledir üstad :D elimden gelen bu kadar (:


Bu Yoruma Cevap Ver
haykopat | 20 Kasım 2010 Cumartesi 20:46
Son kismi tam olmamis gibi, ama yine emegi saygi:D


Bu Yoruma Cevap Ver
sse1 | 19 Kasım 2010 Cuma 18:13


Siz de Görüş Bildirin

Yorum yazma alanı Akor Merkezi üyelerine özel bir bölümdür. (Giriş Yap / Üye Ol / Şifremi Hatırlat)




Anket
KaraRuzqaR soruyor:
1 Ayda 9 Akor Çalıyorum Sizce Nasıl ?













Sonuçlar | Sonuçlar & Yorumlar
Yeni Anket | Anketler





Radyo Dinle
AkorMerkezi.com © 2018
Gizlilik Politikası - Kullanım Koşulları - Kurallar - Son Yorumlar - Rastgele

GitarAkor.com kolonisidir. Derleme 0,04 saniye.