Akor Tab Söz Çeviri Anasayfası
Akor|Tab|Söz|Nota Arşivi
Gitar Akorları | Tab,Söz ve Nota Anasayfası | En Yeni Şarkılar | En Popüler Şarkılar | Akor Cetveli

Bilgiler
 
Seslendiren ve Şarkı: Emre Aydın - Hoşçakal
Biçim: TAB - INTRO
Tarih: 23 Kasım 2010 Salı
Gönderen: R4K
Toplam Okuyan: 5.417 kişi
Bu Ay Okuyan: 16 kişi
Bu Hafta Okuyan: 2 kişi
 
Beğendiniz mi? Hoşçakal Tab sayfasını Şimdi paylaşın:

Emre Aydın - Hoşçakal - Tab

  (versiyon 3)
Puanlama:
 (15 kişi)

Hoşçakal şarkısının diğer versiyonlarına bakın >>

Metin boyutu: ( + Büyült ) ( - Küçült)   



E|-------------------------------------|
B|--9----------------------------------|
G|-----9--11----11--8--9-----8-9-11-8--|
D|-------------------------------------|
A|-------------------------------------|
E|-------------------------------------|



E|-------------------------------------|
B|--9----------------------------------|
G|-----9--11----9--8-8-9-6-------------|
D|-------------------------------------|
A|-------------------------------------|
E|-------------------------------------|

Hoşçakal Tab, AkorMerkezi.com'da yayınlanmıştır.
http://www.akormerkezi.com


İçerik Kısa Linki:


Beğendiniz mi? Hoşçakal Tab sayfasını Şimdi paylaşın:


Hoşçakal şarkısı için amatör kayıtları dinleyin: (Siz de Ekleyin)

Hoşçakal Tab için Komoçotoko'dan Gelenler
Aramalar: hoscakal emre, hoşçakal tab
Emre Aydın - Hoşçakal için Kullanıcı Görüşleri

Henüz buraya yazan çizen olmamış. Yorum yapmak için buraya tıklayabilirsiniz.


Siz de Görüş Bildirin

Yorum yazma alanı Akor Merkezi üyelerine özel bir bölümdür. (Giriş Yap / Üye Ol / Şifremi Hatırlat)




Anket
Guitar-B soruyor:
Şıklarda Ki Gitarlardan Birini Mutlaka Alacak Olsanız Hangisini Tercih Ederdiniz ?









Sonuçlar | Sonuçlar & Yorumlar
Yeni Anket | Anketler





Radyo Dinle
AkorMerkezi.com © 2018
Gizlilik Politikası - Kullanım Koşulları - Kurallar - Son Yorumlar - Rastgele

GitarAkor.com kolonisidir. Derleme 0,02 saniye.