Akor Tab Söz Çeviri Anasayfası
Akor|Tab|Söz|Nota Arşivi
Gitar Akorları | Tab,Söz ve Nota Anasayfası | En Yeni Şarkılar | En Popüler Şarkılar | Akor Cetveli

Bilgiler
 
Seslendiren ve Şarkı: Iron Maiden - Out Of The Silent Planet
Biçim: Bass Tab, Bass Gitar Tab - HİÇBİRİ
Tarih: 18 Eylül 2008 Perşembe
Gönderen: barkinno
Toplam Okuyan: 2.201 kişi
Bu Ay Okuyan: 23 kişi
Bu Hafta Okuyan: 4 kişi
 
Beğendiniz mi? Out Of The Silent Planet Bass Tab sayfasını Şimdi paylaşın:

Iron Maiden - Out Of The Silent Planet - Bass Tab


Puanlama:
 (0 kişi)

Out Of The Silent Planet şarkısının diğer versiyonlarına bakın >>

Metin boyutu: ( + Büyült ) ( - Küçült)   
Out of the Silent Planet

[Intro]
G|----------------------------------------------------------------|
D|----------------------------------------------------------------|
A|-----------------------------------------------------------3--0-|
E|-0-------5-3-----0-------5-3-----0-------5-3-----0-------5------|

G|---------------------------------------------------------------|
D|---------------------------------------------------------------|
A|-------3-333-------5-555-------3-333-------5-555---------------|
E|-0-000-------3-333-------0-000-------3-333---------------------|

G|---------------------------------------------------------------|
D|---------------------------------------------------------------|
A|-------3-333-------5-555-------3-333-------5-555---------------|
E|-0-000-------3-333-------0-000-------3-333---------------------|

G|---------------------------------------------------------------|
D|---------------------------------------------------------------|
A|---------------------------------------------------------------|
E|-00000-00000-00000-00000-00000-00000-00000-00000---------------|


[Verse] ('Withered hands, withered bodies...')
G|----------------------------------------------------------------|
D|----------------------------------------------------------------|
A|--------------------------------3-3-3-3-3-3-3-3-5-5-5-5-5-------|
E|0-0-0-0-0-0-0-0-0-0-0-0-0-0-0-0---------------------------0-3-2-|

G|----------------------------------------------------------------|
D|----------------------------------------------------------------|
A|--------------------------------3-3-3-3-3-3-3-3-0-0-0-0-0-------|
E|0-0-0-0-0-0-0-0-0-0-0-0-0-0-0-0---------------------------0-3-2-|

G|----------------------------------------------------------------|
D|----------------------------------------------------------------|
A|--------------------------------3-3-3-3-3-3-3-3-5-5-5-5-5-------|
E|0-0-0-0-0-0-0-0-0-0-0-0-0-0-0-0---------------------------0-3-2-|

G|----------------------------------------------------------------|
D|----------------------------------------------------------------|
A|--------------------------------3-3-3-3-3-3-3-3-5-5-5-5-5-5-5-5-|
E|0-0-0-0-0-0-0-0-0-0-0-0-0-0-0-0---------------------------------|

G|----------------------------------------------------------------|
D|----------------------------------------------------------------|
A|0-0-0-0-0-0-0-0-3-3-3-3-3-3-3-3---------------------------------|
E|--------------------------------0-0-0-0-0-0-0-0-0-0-0-0-0-0-0-0-|

G|----------------------------------------------------------------|
D|----------------------------------------------------------------|
A|0-0-0-0-0-0-0-0-3-3-3-3-3-3-3-3-5-5-5-5-5-5-5-5-5-5-5-5-5-5-5-5-|
E|----------------------------------------------------------------|


[Chorus] ('Out of the silent planet...')
G|----------------------------------------------------------------|
D|----------------------------------------------------------------|
A|----------------3-3-3-3-3-3-3-3-----------------5-5-5-5-5-5-5-5-|
E|0-0-0-0-0-0-0-0-----------------3-3-3-3-3-3-3-3-----------------|

[Interlude]
G|-------------------------------------------------------------------|
D|-------------------------------------------------------------------|
A|-------------------------------------------------------------------|
E|0-0-0-0-0-0-0-0-0-0-0-0-0-0-0-0-0-0-0-0-0-0-0-0-0-0-0-0-0-0-0-0----|   x1

G|-------------------------------------------------------------------|
D|-------------------------------------------------------------------|
A|3-3-3-3-3-3-3-3-5-5-5-5-5-5-5-5------------------------------------|
E|--------------------------------0-0-0-0-0-0-0-0-0-0-0-0-0-0-0-0----|   x8

G|-------------------------------------------------------------------|
D|-------------------------------------------------------------------|
A|3-3-3-3-3-3-3-3-5-5-5-5-5-5-5-5-2-2-2-2-2-2-2-2-3-3-3-3-5-5-5-5----|
E|-------------------------------------------------------------------|   x1


barkın şimşek /// barkinno@hotmail.com
Out Of The Silent Planet Bass Tab, AkorMerkezi.com'da yayınlanmıştır.
http://www.akormerkezi.com


İçerik Kısa Linki:


Beğendiniz mi? Out Of The Silent Planet Bass Tab sayfasını Şimdi paylaşın:


Out Of The Silent Planet Bass Tab için Komoçotoko'dan Gelenler
Aramalar: iron maiden out of the silent planet akormerkezi, iron maiden out of the silent planet dınle, out of the silent planet chord, out of the silent planet bass tabs
Iron Maiden - Out Of The Silent Planet için Kullanıcı Görüşleri

Henüz buraya yazan çizen olmamış. Yorum yapmak için buraya tıklayabilirsiniz.


Siz de Görüş Bildirin

Yorum yazma alanı Akor Merkezi üyelerine özel bir bölümdür. (Giriş Yap / Üye Ol / Şifremi Hatırlat)


Anket
buyukozan soruyor:
Sahnede ve ton bakımından sizce hangisi daha iyi olur ?







Sonuçlar | Sonuçlar & Yorumlar
Yeni Anket | Anketler



AkorMerkezi.com © 2022
Gizlilik Politikası - Kullanım Koşulları - Kurallar - Son Yorumlar - Rastgele

GitarAkor.com kolonisidir. Derleme 0,03 saniye.