Akor Tab Söz Çeviri Anasayfası
Akor|Tab|Söz|Nota Arşivi
Gitar Akorları | Tab,Söz ve Nota Anasayfası | En Yeni Şarkılar | En Popüler Şarkılar | Akor Cetveli

Bilgiler
 
Seslendiren ve Şarkı: Oğuzhan Koç - Al Ahını
Biçim: TAB - HİÇBİRİ
Tarih: 13 Temmuz 2011 Çarşamba
Gönderen: wıld turk
Toplam Okuyan: 7.513 kişi
Bu Ay Okuyan: 92 kişi
Bu Hafta Okuyan: 8 kişi
 
Beğendiniz mi? Al Ahını Tab sayfasını Şimdi paylaşın:

Oğuzhan Koç - Al Ahını - Tab


Puanlama:
 (27 kişi)

Al Ahını şarkısının diğer versiyonlarına bakın >>

Metin boyutu: ( + Büyült ) ( - Küçült)   

ARA SOLO


E--7--6--7--6--7--6--7--6--7--9--11--9--7--6--6--6/7--4--2----------------------
B-------------------------------------------------------------------------------
G-------------------------------------------------------------------------------
D-------------------------------------------------------------------------------
A-------------------------------------------------------------------------------
E-------------------------------------------------------------------------------


E--2--2--0-----0-----0-----0--2--4--2--0--2-------------------------------------
B-----------4-----4-----4-------------------------------------------------------
G-------------------------------------------------------------------------------
D-------------------------------------------------------------------------------
A-------------------------------------------------------------------------------
E-------------------------------------------------------------------------------


E--7--6--7--6--7--6--7--6--7--9--11--9--11--12--11--12--14--12--11--11----------
B-------------------------------------------------------------------------------
G-------------------------------------------------------------------------------
D-------------------------------------------------------------------------------
A-------------------------------------------------------------------------------
E-------------------------------------------------------------------------------


E--11--11--16--16--16--14--14--12--12--11--11--9--9--7/9--11--11--11/12--9--9---
B-------------------------------------------------------------------------------
G-------------------------------------------------------------------------------
D-------------------------------------------------------------------------------
A-------------------------------------------------------------------------------
E-------------------------------------------------------------------------------


Hızlı Bir Ara Solo Olduğu İçin Fazla Duraksama Yapmayınız.

Alıntı Değildir.

BaHa (Y)

Al Ahını Tab, AkorMerkezi.com'da yayınlanmıştır.
http://www.akormerkezi.com


İçerik Kısa Linki:


Beğendiniz mi? Al Ahını Tab sayfasını Şimdi paylaşın:



Al Ahını Tab için Komoçotoko'dan Gelenler
Aramalar: al ahını solo, oğuzhan koç tab, oğuzhan koç al ahını arpej, oğuzhan koç al ahını переклад, alma ahımı solo notaları, al ahimi tab, oğuzhan+koç+al+ahını+akor, al ahını akor, oğuzhan koç al ahımı akor, al ahımı
Oğuzhan Koç - Al Ahını için Kullanıcı Görüşleri

Henüz buraya yazan çizen olmamış. Yorum yapmak için buraya tıklayabilirsiniz.


Siz de Görüş Bildirin

Yorum yazma alanı Akor Merkezi üyelerine özel bir bölümdür. (Giriş Yap / Üye Ol / Şifremi Hatırlat)


Anket
pembe gitar soruyor:
En Cok Hangisini Seviyosun?













Sonuçlar | Sonuçlar & Yorumlar
Yeni Anket | Anketler




Radyo Dinle
AkorMerkezi.com © 2019
Gizlilik Politikası - Kullanım Koşulları - Kurallar - Son Yorumlar - Rastgele

GitarAkor.com kolonisidir. Derleme 0,03 saniye.