Akor Tab Söz Çeviri Anasayfası
Akor|Tab|Söz|Nota Arşivi
Gitar Akorları | Tab,Söz ve Nota Anasayfası | En Yeni Şarkılar | En Popüler Şarkılar | Akor Cetveli

Bilgiler
 
Seslendiren ve Şarkı: Oğuzhan Koç - Al Ahını
Biçim: Akor, Gitar Akorları - SOLO
Tarih: 26 Ekim 2010 Salı
Gönderen: Znx
Toplam Okuyan: 5.895 kişi
Bu Ay Okuyan: 57 kişi
Bu Hafta Okuyan: 4 kişi
 
Beğendiniz mi? Al Ahını Akor sayfasını Şimdi paylaşın:

Oğuzhan Koç - Al Ahını - Akor

  (versiyon 6)
Puanlama:
 (5 kişi)

Al Ahını şarkısının diğer versiyonlarına bakın >>

Metin boyutu: ( + Büyült ) ( - Küçült)   
     C                                 E
E)---------------------------------------------------------------------
B)-1-------------------------------------0-----------------------------
G)-0-------------------------------------0-----------------------------
D)-2----2-----3-----5-----3-----2--------2---2---3----3~5-5--3-2----------
A)-3-------3----3------3-----3-----------2-----2---2----------------------
E)-0-------------------------------------0-----------------------------

  BARE                       F
E)-1------------------------------------------------------------              x2
B)-1------------------------------------------------------------
G)-1---2--------------------------------------------------------
D)-1----3---------3----2-----3---3~5--3~2---2---5---------------
a)-1----3-----------3-----3---3-------------------5-55---3*5----
E)-1------------------------------------------------------------

C         Em
Canımı al..seni alma benden
 C               Em
Benide çal vazgeçtim kendimden         2x
F     
Sevabın kalmasın bana 
C
Günahın benim boynuma

 
G          F     G     C
Al ahını vazgeçtim senden
G          F 
Al canımı deme bana
G           F         G
Sar beni son bikez daha
C              Em
Gülermiydin, bakarmıydın 
F             G
Gözlerimden kaçarmıydın 
C        Em       F            G
Yine seni sevsemde kin tutarmıydın 
C                       Em
Gidermiydin, kalırmıydın,
F             G
severmiydin, kaçarmıydın
C         Em          F          G      
senden vazgeçmesemde hep susarmıydın.


C                         Em
Bir buse yetmez derken ben senden oldum
F                 C                   G
Al ahını yeter..yeter kederlere boğuldum
C                            Em 
Bin derde kurban oldum ben bilmesende.. 
F         G#            G            C
Gecse de..ah etmem..edemem...aldım ahımı...

Başlangıç seviyesindeki arkadaşlar için yapılmıştır.

Fa olan yeri biraz seri çalarsanız daha iyi oluyor..(baştaki intro için..)
Al Ahını Akor, AkorMerkezi.com'da yayınlanmıştır.
http://www.akormerkezi.com


İçerik Kısa Linki:


Beğendiniz mi? Al Ahını Akor sayfasını Şimdi paylaşın:


Oğuzhan Koç - Al Ahını KULLANILAN AKORLAR (Beta)
C0 3 2 0 1 00 3 5 5 5 33 3 2 0 1 0
E0 2 2 1 0 0x 7 6 4 5 0
F1 3 3 2 1 1x 0 3 2 1 1x 3 3 2 1 1
Em0 2 2 0 0 03 x 2 0 0 0x 2 5 x x 0
Gx 10 12 12 12 103 2 0 0 0 33 2 0 0 3 3
G#4 6 6 5 4 4
Şarkıda kullanılan akorların farklı şekillerde basılışlarıdır. (Detaylı bilgi)


Al Ahını Akor için Komoçotoko'dan Gelenler
Aramalar: oguzhan koc gidermiydim kalirmiiydim akor, alma ahımı akor 6, oguzhan koç al ahını solo notalari, OĞUZHAN KOÇ LEVREK MEZGİT, al ahını akor, alma ahımı intro, Oguzhan Koc - Al Ahini, al ahını 6, oğuzhan koç al ahını akor, oguzhan koç
Oğuzhan Koç - Al Ahını için Kullanıcı Görüşleri

Henüz buraya yazan çizen olmamış. Yorum yapmak için buraya tıklayabilirsiniz.


Siz de Görüş Bildirin

Yorum yazma alanı Akor Merkezi üyelerine özel bir bölümdür. (Giriş Yap / Üye Ol / Şifremi Hatırlat)




Anket
olicityFAN soruyor:
Demi Lovato'un En İyi Şarkısı Hangisi ?













Sonuçlar | Sonuçlar & Yorumlar
Yeni Anket | Anketler




Radyo Dinle
AkorMerkezi.com © 2019
Gizlilik Politikası - Kullanım Koşulları - Kurallar - Son Yorumlar - Rastgele

GitarAkor.com kolonisidir. Derleme 0,05 saniye.