Akor Tab Söz Çeviri Anasayfası
Akor|Tab|Söz|Nota Arşivi
Gitar Akorları | Tab,Söz ve Nota Anasayfası | En Yeni Şarkılar | En Popüler Şarkılar | Akor Cetveli

Bilgiler
 
Seslendiren ve Şarkı: Oğuzhan Koç - Al Ahını
Biçim: TAB - INTRO
Tarih: 03 Ağustos 2012 Cuma
Gönderen: MahmutA
Toplam Okuyan: 2.078 kişi
Bu Ay Okuyan: 43 kişi
Bu Hafta Okuyan: 6 kişi
 
Beğendiniz mi? Al Ahını Tab sayfasını Şimdi paylaşın:

Oğuzhan Koç - Al Ahını - Tab

  (versiyon 2)
Puanlama:
 (1 kişi)

Al Ahını şarkısının diğer versiyonlarına bakın >>

Metin boyutu: ( + Büyült ) ( - Küçült)   
  

   C                       Em

E--0-----------------------0---------------------
B--1-----------------------0---------------------
G--0----------0------------0---------------------
D--2---2--3------3---2-----2---2---3----3/5--3-2-
A--3-----3--3---3---3------2------2----2---------
E--0-----------------------0---------------------

  F                   C           Em
   
E-1-------------------0-----------0---------------
B-1-------------------1-----------0---------------
G-2-------------------0-------0---0---------------
D-3---3--3-2--3/5--3--2---2-------2---0------0-2--
A-3-------------------3------3----2-----2---------
E-1-------------------0-----------0---------------

Arkadaşlar sadece introyu çıkarttım arada bir solo var onun dışında hep ritm zaten
Al Ahını Tab, AkorMerkezi.com'da yayınlanmıştır.
http://www.akormerkezi.com


İçerik Kısa Linki:


Beğendiniz mi? Al Ahını Tab sayfasını Şimdi paylaşın:



Al Ahını Tab için Komoçotoko'dan Gelenler
Aramalar: oguzhan, oğuzhan koç, Oğuzhan Koç al ahını tab, oğuzhan koç tab, oğuzhan koç al ahını, al ahını
Oğuzhan Koç - Al Ahını için Kullanıcı Görüşleri

Henüz buraya yazan çizen olmamış. Yorum yapmak için buraya tıklayabilirsiniz.


Siz de Görüş Bildirin

Yorum yazma alanı Akor Merkezi üyelerine özel bir bölümdür. (Giriş Yap / Üye Ol / Şifremi Hatırlat)


Anket
pen_tatonix soruyor:
Hayko Cepkinin en iyi şarkısı sizce hangisi ?













Sonuçlar | Sonuçlar & Yorumlar
Yeni Anket | Anketler




Radyo Dinle
AkorMerkezi.com © 2019
Gizlilik Politikası - Kullanım Koşulları - Kurallar - Son Yorumlar - Rastgele

GitarAkor.com kolonisidir. Derleme 0,05 saniye.