Akor Tab Söz Çeviri Anasayfası
Akor|Tab|Söz|Nota Arşivi
Gitar Akorları | Tab,Söz ve Nota Anasayfası | En Yeni Şarkılar | En Popüler Şarkılar | Akor Cetveli

Bilgiler
 
Seslendiren ve Şarkı: Gökhan Türkmen - Büyük İnsan
Biçim: TAB - HİÇBİRİ
Tarih: 02 Mayıs 2009 Cumartesi
Gönderen: double bare
Toplam Okuyan: 13.429 kişi
Bu Ay Okuyan: 106 kişi
Bu Hafta Okuyan: 12 kişi
 
Beğendiniz mi? Büyük İnsan Tab sayfasını Şimdi paylaşın:

Gökhan Türkmen - Büyük İnsan - Tab

  (versiyon 2)
Puanlama:
 (5 kişi)

Büyük İnsan şarkısının diğer versiyonlarına bakın >>

Metin boyutu: ( + Büyült ) ( - Küçült)   
E-------------------------------------------------
B-------------------------------------------------
G------------------------------------------------- (2 kere)
D-----10------8-10-8------8-----------------------
A--8------11----------11-----11-9-11--------------
E-------------------------------------------------


E---------------------------------------------------------------------
B---------------------------------------------------------------------
G---------------------------------------------------------------------
D-----10s11--8-10-11-10-8-10-8---------8------8-----------------------
A--8----------------------------11-10-----11-----11-9-11-11--9-7-9-6--
E---------------------------------------------------------------------

      umarım beğenirsiniz....
Büyük İnsan Tab, AkorMerkezi.com'da yayınlanmıştır.
http://www.akormerkezi.com


İçerik Kısa Linki:


Beğendiniz mi? Büyük İnsan Tab sayfasını Şimdi paylaşın:


Büyük İnsan Tab için Komoçotoko'dan Gelenler
Aramalar: Gökhan Türkmen büyük insan, gökhan türkmen - büyük insan, büyük insan akor ve tab, büytük insan tab, intizar büyük insan tab, insan tab, susma tab ver 2, gökhan türkmen büyük insan tab, büyük insan akor tab, gökhan türkmen tab
Gökhan Türkmen - Büyük İnsan için Kullanıcı Görüşleri

maceraya gerek yok 1.versiyon iyi


Bu Yoruma Cevap Ver
solistik | 20 Eylül 2014 Cumartesi 21:17
16 Nisan 2012 Pazartesi tarihinde Özay Slmz yazmıştı:
olmamıs artı yanlıs telden gırıyo bence
eyvallah sağol


Bu Yoruma Cevap Ver
double bare | 21 Nisan 2012 Cumartesi 12:47
olmamıs artı yanlıs telden gırıyo bence


Bu Yoruma Cevap Ver
Özay Slmz | 16 Nisan 2012 Pazartesi 16:57
30 Mayıs 2009 Cumartesi tarihinde HAKKO70 yazmıştı:
intro güzel devamını daha denemedim elinize sağlık
hakko hala şarkının devamını denemedin mi!!! maşallah siteyi de baya ziyaret etmişsin!! gitarla ne kadar alakalısın sen öyle... yoksa gitarın küflendi mi.. şarkının devamını getir de ne kadar doğru bi tab çıkardığımı tesbit et...


Bu Yoruma Cevap Ver
double bare | 19 Ocak 2011 Çarşamba 14:16
intro güzel devamını daha denemedim elinize sağlık


Bu Yoruma Cevap Ver
HAKKO70 | 30 Mayıs 2009 Cumartesi 22:14


Siz de Görüş Bildirin

Yorum yazma alanı Akor Merkezi üyelerine özel bir bölümdür. (Giriş Yap / Üye Ol / Şifremi Hatırlat)


Anket
erenmgursoy soruyor:
Kapalı Humbuckerın Mı Yoksa Açık Humbuckerın Mı Tonu Daha İyi ?







Sonuçlar | Sonuçlar & Yorumlar
Yeni Anket | Anketler




Radyo Dinle
AkorMerkezi.com © 2019
Gizlilik Politikası - Kullanım Koşulları - Kurallar - Son Yorumlar - Rastgele

GitarAkor.com kolonisidir. Derleme 0,03 saniye.