Akor Tab Söz Çeviri Anasayfası
Akor|Tab|Söz|Nota Arşivi
Gitar Akorları | Tab,Söz ve Nota Anasayfası | En Yeni Şarkılar | En Popüler Şarkılar | Akor Cetveli

Bilgiler
 
Seslendiren ve Şarkı: Gökhan Türkmen - Büyük İnsan
Biçim: TAB - HİÇBİRİ
Tarih: 3 Ağustos 2012 Cuma
Gönderen: wıld turk
Toplam Okuyan: 7.906 kişi
Bu Ay Okuyan: 88 kişi
Bu Hafta Okuyan: 12 kişi
 
Beğendiniz mi? Büyük İnsan Tab sayfasını Şimdi paylaşın:

Gökhan Türkmen - Büyük İnsan - Tab

  (versiyon 5)
Puanlama:
 (17 kişi)

Büyük İnsan şarkısının diğer versiyonlarına bakın >>

Metin boyutu: ( + Büyült ) ( - Küçült)   


Intro :

E-----------------------------------------
B-----------------------------------------
G-----------------------------------------
D------9--5--7--9--7--5--7--5p7--5--------
A---7-------------------------------8-----
E-----------------------------------------

E-----------------------------------------
B-----------------------------------------
G-----------------------------------------
D------9--5--7--9--7---7--7--9--9--10-----
A---7-------------------------------------
E-----------------------------------------

E--------------------------------------------------
B--------------------------------------------------
G--------------------------------------------------
D---10--14--14--12--12p14--12--10--12--10--9--7----
A--------------------------------------------------
E--------------------------------------------------

E-----------------------------------------
B-----------------------------------------
G-----------------------------------------
D---7--10--9--10--9--7--5--5--------------
A-----------------------------8--8--7--7--
E-----------------------------------------



Alıntı Değildir !


BaHa (Y)



Büyük İnsan Tab, AkorMerkezi.com'da yayınlanmıştır.
http://www.akormerkezi.com


İçerik Kısa Linki:


Beğendiniz mi? Büyük İnsan Tab sayfasını Şimdi paylaşın:


Büyük İnsan Tab için Komoçotoko'dan Gelenler
Aramalar: gökhan türkmen, gökhan türkmen - büyük insan, büyük insan akor ve tab, büyük insan akor, buyuk insan tab, büyük insan, büyük insan tab, büyük insan akor 5, gökhan türkmen büyük insan, gökhan türkmen buyuk tab
Gökhan Türkmen - Büyük İnsan için Kullanıcı Görüşleri

Henüz buraya yazan çizen olmamış. Yorum yapmak için buraya tıklayabilirsiniz.


Siz de Görüş Bildirin

Yorum yazma alanı Akor Merkezi üyelerine özel bir bölümdür. (Giriş Yap / Üye Ol / Şifremi Hatırlat)


Anket
_@t@_ soruyor:
Sizce Hangi Bas Gitar?








Sonuçlar | Sonuçlar & Yorumlar
Yeni Anket | Anketler



AkorMerkezi.com © 2021
Gizlilik Politikası - Kullanım Koşulları - Kurallar - Son Yorumlar - Rastgele

GitarAkor.com kolonisidir. Derleme 0,04 saniye.