Akor Tab Söz Çeviri Anasayfası
Akor|Tab|Söz|Nota Arşivi
Gitar Akorları | Tab,Söz ve Nota Anasayfası | En Yeni Şarkılar | En Popüler Şarkılar | Akor Cetveli

Bilgiler
 
Seslendiren ve Şarkı: Gökhan Türkmen - Büyük İnsan
Biçim: TAB - HİÇBİRİ
Tarih: 27 Nisan 2011 Çarşamba
Gönderen: okynanuS_deniS
Toplam Okuyan: 7.064 kişi
Bu Ay Okuyan: 71 kişi
Bu Hafta Okuyan: 7 kişi
 
Beğendiniz mi? Büyük İnsan Tab sayfasını Şimdi paylaşın:

Gökhan Türkmen - Büyük İnsan - Tab

  (versiyon 3)
Puanlama:
 (6 kişi)

Büyük İnsan şarkısının diğer versiyonlarına bakın >>

Metin boyutu: ( + Büyült ) ( - Küçült)   
e------------------------------------------------------       
b------------------------------------------------------
g------------------------------------------------------       2 kere
d----5---5-7-5----5------------------------------------
a--7---8--------8---8-6-5------------------------------
E------------------------------------------------------

e------------------------------------------------------
b------------------------------------------------------
g-----7----5-7-5-----5---------------------------------
d-------8---------8-----8-7-5-8-7-8-7-5-----5----------
a--5-------------------------------------8----8-6-8-5--
E------------------------------------------------------

e-----5------5-----------------------------------------
b--------6-8---8-6-8-6---------------------------------
g--7--------------------8-7----------------------------        2 kere
d------------------------------------------------------
a------------------------------------------------------
E------------------------------------------------------

e-----10-6-8-10-8-6-8-6-5---6-5-6-5--------------------
b-------------------------8---------8-6-8-6---6--------
g--7----------------------------------------8---7------
d------------------------------------------------------
a------------------------------------------------------
E------------------------------------------------------



Büyük İnsan Tab, AkorMerkezi.com'da yayınlanmıştır.
http://www.akormerkezi.com


İçerik Kısa Linki:


Beğendiniz mi? Büyük İnsan Tab sayfasını Şimdi paylaşın:


Büyük İnsan Tab için Komoçotoko'dan Gelenler
Aramalar: gökhan türkmen - büyük insan, büyük insan, insan tab, gökhan türkmen büyük insan, 3 büyük insan, büyük insan tab, gokhan turkmen tab, gökhan türkmen tab büyük insan, gökhan türkmen
Gökhan Türkmen - Büyük İnsan için Kullanıcı Görüşleri

21 Mayıs 2011 Cumartesi tarihinde darknesslove yazmıştı:
E-0---3----------3----3--1--/-0---3----------3----3--1--
A---2---0--2--0----0--------/---2---0--2--0----0--------

E--0--------------------------------------------------------------
A--------3----------3---3--1---------5---3-----3---1---3---0-
D-----2----0--2--0---0----------------------0------------------

E-0---3--------------------3----3---1---0--/-0---3-------------------3----3---4---5---5--------------------------------------------------------------
A---2----0---2--3--2--0-----0--------------/---2----0---2--3--2--0----0-------------------------------3--------3--1------5--3------3---1---3--0-
D------------------------------------------------------------------------------------------------2---2--2--0-------0--------------------0----------------


Arkadaşlar isterseniz birde bunu deneyin, alıntı kesinlikle değildir kendim buldum .. :)
darknesslove kardeşim sanki 2 kısımda burdan sonrasını biraz bozmuşssun gene de emeğine sağlık =) (bas olmuş birazda)
E--0-------------------
A--------3----------3---
D-----2----0--2--0---0-

kardeşim tab 4 dü denedim de kulağıma pek aşina gelmedi ama emeğine sağlık sennde =) =)


Bu Yoruma Cevap Ver
arthas003 | 05 Eylül 2011 Pazartesi 07:57
E-0---3----------3----3--1--/-0---3----------3----3--1--
A---2---0--2--0----0--------/---2---0--2--0----0--------

E--0--------------------------------------------------------------
A--------3----------3---3--1---------5---3-----3---1---3---0-
D-----2----0--2--0---0----------------------0------------------

E-0---3--------------------3----3---1---0--/-0---3-------------------3----3---4---5---5--------------------------------------------------------------
A---2----0---2--3--2--0-----0--------------/---2----0---2--3--2--0----0-------------------------------3--------3--1------5--3------3---1---3--0-
D------------------------------------------------------------------------------------------------2---2--2--0-------0--------------------0----------------


Arkadaşlar isterseniz birde bunu deneyin, alıntı kesinlikle değildir kendim buldum .. :)


Bu Yoruma Cevap Ver
darknesslove | 21 Mayıs 2011 Cumartesi 19:08
02 Mayıs 2011 Pazartesi tarihinde vcarlito yazmıştı:
girişte -------5-------5 yerine 7 ile 5 yer değiştirse daha iyi olur sanırım. şöyle yani --------7-------5--7--5
---7--------8 ----5-------8

teşekkürler..
ben bunu gökhan türkmenden aldım beni aradı verdii :)))


Bu Yoruma Cevap Ver
okynanuS_deniS | 04 Mayıs 2011 Çarşamba 16:43
yok be aqa orjinali bu kendi sesine göre veya kulağına göre perdeyi değiştir transpoze et ama orjinali bu bence ama yinede bi bilene soralımm :)


Bu Yoruma Cevap Ver
okynanuS_deniS | 04 Mayıs 2011 Çarşamba 02:49
girişte -------5-------5 yerine 7 ile 5 yer değiştirse daha iyi olur sanırım. şöyle yani --------7-------5--7--5
---7--------8 ----5-------8

teşekkürler..


Bu Yoruma Cevap Ver
vcarlito | 02 Mayıs 2011 Pazartesi 21:12


Siz de Görüş Bildirin

Yorum yazma alanı Akor Merkezi üyelerine özel bir bölümdür. (Giriş Yap / Üye Ol / Şifremi Hatırlat)




Anket
MeTaLFaN soruyor:
En İyi Metal Grup Hangisi??










Sonuçlar | Sonuçlar & Yorumlar
Yeni Anket | Anketler




Radyo Dinle
AkorMerkezi.com © 2019
Gizlilik Politikası - Kullanım Koşulları - Kurallar - Son Yorumlar - Rastgele

GitarAkor.com kolonisidir. Derleme 0,25 saniye.