Akor Tab Söz Çeviri Anasayfası
Akor|Tab|Söz|Nota Arşivi
Gitar Akorları | Tab,Söz ve Nota Anasayfası | En Yeni Şarkılar | En Popüler Şarkılar | Akor Cetveli

Bilgiler
 
Seslendiren ve Şarkı: Haluk Levent - Akdeniz Akşamları
Biçim: TAB - HİÇBİRİ
Tarih: 30 Haziran 2014 Pazartesi
Gönderen: Azizmirzeyev
Toplam Okuyan: 9.221 kişi
Bu Ay Okuyan: 415 kişi
Bu Hafta Okuyan: 52 kişi
 
Beğendiniz mi? Akdeniz Akşamları Tab sayfasını Şimdi paylaşın:

Haluk Levent - Akdeniz Akşamları - Tab

  (versiyon 5)
Puanlama:
 (2 kişi)

Akdeniz Akşamları şarkısının diğer versiyonlarına bakın >>

Metin boyutu: ( + Büyült ) ( - Küçült)   
e)-----0-------------------0--0----------------------------
b)-1-3---3-1---------------------3--1--0-------------------
g)-------------2----------------------------0--------------
d)-----------2---2------------------------0---0------------
a)-----0---------------------------------------------------
e)-------------------------------3-------------------------

e)---------------------------------------------------------
b)-3-0--1-0------------------------0-----------------------
g)----------2----2---------2-2-1-2-------2-----------------
d)------------ 0---0-------------------0---0---------------
a)---------------------------------------------------------
e)------1----------------------0---------------------------

e)-------------------------------------------------------------------------------------------------------
b)-1-0------------------------0--------------------------------------------------------------------------
g)------2-----2----2------------2---0----0---0---------2--0---------------------0------------------------
d)----------2---2----2-----------------0---0---0------------3----3---3-------------3---2------2-----2----
a)------0------------------------------------------------------0---0---0-------------------0-----0----0--
e)----------------------------------3-----------------------1--------------------------0-----------------


   
Akdeniz Akşamları Tab, AkorMerkezi.com'da yayınlanmıştır.
http://www.akormerkezi.com


İçerik Kısa Linki:


Beğendiniz mi? Akdeniz Akşamları Tab sayfasını Şimdi paylaşın:



Akdeniz Akşamları Tab için Komoçotoko'dan Gelenler
Aramalar: aldeniz aksamlari tab, Akdeniz tab, akdeniz akşamlar tab, Akdeniz akşamları, akdeniz akşamları akor, akdeniz akşamları sözleri, akdeniz aksamlaei tab, akdhiz aksamlari tab, akdeniz akşamlar, akdeniz akşamı akor
Haluk Levent - Akdeniz Akşamları için Kullanıcı Görüşleri

Eger olmussa cok sevinirim


Bu Yoruma Cevap Ver
Azizmirzeyev | 8 Temmuz 2014 Salı 21:49
Ellerine sağlık kardeşim.


Bu Yoruma Cevap Ver
Ashto | 1 Temmuz 2014 Salı 16:17


Siz de Görüş Bildirin

Yorum yazma alanı Akor Merkezi üyelerine özel bir bölümdür. (Giriş Yap / Üye Ol / Şifremi Hatırlat)


Anket
acoustikman soruyor:
Yeni Godin A6 Ultra Trans Red Ne Kadar Eder? (2. El Olmayan)












Sonuçlar | Sonuçlar & Yorumlar
Yeni Anket | Anketler



AkorMerkezi.com © 2022
Gizlilik Politikası - Kullanım Koşulları - Kurallar - Son Yorumlar - Rastgele

GitarAkor.com kolonisidir. Derleme 0,05 saniye.