Akor Tab Söz Çeviri Anasayfası
Akor|Tab|Söz|Nota Arşivi
Gitar Akorları | Tab,Söz ve Nota Anasayfası | En Yeni Şarkılar | En Popüler Şarkılar | Akor Cetveli

Bilgiler
 
Seslendiren ve Şarkı: Oğuzhan Koç - Giden Günlerim Oldu
Biçim: TAB - HİÇBİRİ
Tarih: 18 Nisan 2009 Cumartesi
Gönderen: grupmeze
Toplam Okuyan: 21.933 kişi
Bu Ay Okuyan: 246 kişi
Bu Hafta Okuyan: 27 kişi
 
Beğendiniz mi? Giden Günlerim Oldu Tab sayfasını Şimdi paylaşın:
DİKKAT!
Giden Günlerim Oldu Tab sayfasını düzgün görüntüleyemiyor olabilirsiniz.
Eğer böyle bir sıkıntınız varsa tıklayın.

Oğuzhan Koç - Giden Günlerim Oldu - Tab


Puanlama:
 (20 kişi)

Giden Günlerim Oldu şarkısının diğer versiyonlarına bakın >>

Metin boyutu: ( + Büyült ) ( - Küçült)   

 OGUZHAN KOÇ – GİDEN GÜNLERİM OLDU 

           
E-0--------------3--------3-----------3----1-3------3--1--0-----
A-------3--2--0-----0-Am------0--2--0-------------0---------0-Am 
D---------------------------------------------------------------
G---------------------------------------------------------------
B---------------------------------------------------------------
E---------------------------------------------------------------

  GİDEN  GÜNLERİM  OLDU    SENİ  ANMADIM    YOLA  BAKMADIM HALA 

           
E-----------------3---3--1-------3--1--0------------------------
A---3--0---2---0------------0-----------------------------------
D-----------------------------------------3---------------------
G---------------------------------------------------------------
B---------------------------------------------------------------
E---------------------------------------------------------------

    DİLE   GELMEDEN   DÜŞLERİM   YALNIZLIĞA        
        
E---------------------------------------------------------------
A---------------------------------------------------------------
D--3--2-3------------------3—----2-------3—--2-—0----2----------
G-----------0--2-----0------------------------------------------
B-----------------0---------------------------------------------
E---------------------------------------------------------------

  SUSMAMDA  YETER Kİ SON VERMEM İÇİN    H A Y A T I M A         


 ///////////////////////////////////////////////////////////////

           
E-0--------------3--------3-----------3----1-3------3--1--0-----
A-------3--2--0-----0-Am------0--2--0-------------0---------0-Am 
D---------------------------------------------------------------
G---------------------------------------------------------------
B---------------------------------------------------------------
E---------------------------------------------------------------

  TÜM GÜNLERİM  SOLDU    SANA   ATMADIM   TARAF  OLMADIM  ASLA

           
E-----------------3---3--1-------3--1--0------------------------
A---3--0---2---0------------0-----------------------------------
D-----------------------------------------3---------------------
G---------------------------------------------------------------
B---------------------------------------------------------------
E---------------------------------------------------------------
   
    DİLE   GELMEDEN   DÜŞLERİM   YALNIZLIĞA
           

E---------------------------------------------------------------
A---------------------------------------------------------------
D--3--2-3------------------3—------2------3--2--0--2------------
G-----------0--2-----0------------------------------------------
B-----------------0---------------------------------------------
E---------------------------------------------------------------
 
  GÜLMEMDE YETER Kİ  GERİ GELMEM   İÇİN   H A Y A T A



E---------------------------------------------------------------
A---0-2-3---2--3----0-2----3-2-3---3-2--------------------------
D--------------------------------0------------------------------
G---------------------------------------------------------------
B---------------------------------------------------------------
E---------------------------------------------------------------

     BENİ   ALSALAR  İPE   K O Y S A L A R 

E-----------3----------------------3----------------------------
A--2--0-2------0----2-0-2--3-2-0-0---0--------------------------
D---------------------------------------------------------------
G---------------------------------------------------------------
B---------------------------------------------------------------
E---------------------------------------------------------------

   DAYANAMAZ YİNE  KADERE  SALSALAR

E—-1--3-------3-----1--0--Em------------------------------------
A---------0-2---------------------------------------------------
D---------------------------------------------------------------
G---------------------------------------------------------------
B---------------------------------------------------------------
E---------------------------------------------------------------

  GÖNLÜM ARIYOR TİTRİYORUM BAK 



E--------------------------------------------------------------
A---0-2-3---2--3----0-2----3-2-3---3-2-------------------------
D--------------------------------0-----------------------------
G--------------------------------------------------------------
B--------------------------------------------------------------
E--------------------------------------------------------------

    SIRA   GELMEDEN   GİDEMEM Kİ  BEN  

E-----------3----------------------3----------------------------
A--2--0-2------0----2-0-2--3-2-0-0---0--------------------------
D---------------------------------------------------------------
G---------------------------------------------------------------
B---------------------------------------------------------------
E---------------------------------------------------------------

   TUTAMAZ  ELLERİM    SENİ   GÖRMEDEN

E—-1--3-------------3-----1--0-Em------------------------------
A------------0-2-----------------------------------------------
D--------------------------------------------------------------
G--------------------------------------------------------------
B--------------------------------------------------------------
E--------------------------------------------------------------

  ZAMAN GEÇİYOR BEKLİYORUM BAK 


UMARIM YARDIM EDEBILMIŞIMDIR TEK BAŞIMA CALIP  YAZDIGIM IÇIN EPEY ZORLANDIM 
EĞER EKSIK BI YERLER VARSA AFFINIZA SIGINIYORUM  BAZI YERLERDE tabları Am İLE
BESLERSENIZ KARŞINIZA BIRAZ DAHA GUZEL BI ÇALIŞMA CIKACAKTIR SEVGILERIMIZLE GRUPMEZE....
UMARIM SITEYE KOYARKEN TABlar KAYMAZ EGER KAYARSA SIZLER GERISINI GETIRIRSINIZ....
Giden Günlerim Oldu Tab, AkorMerkezi.com'da yayınlanmıştır.
http://www.akormerkezi.com


İçerik Kısa Linki:


Beğendiniz mi? Giden Günlerim Oldu Tab sayfasını Şimdi paylaşın:


Giden Günlerim Oldu Tab için Komoçotoko'dan Gelenler
Aramalar: giden gunlerim oldu gitar tabi, unutulmyan melodileri oğuzhan, giden günlerim oldutab, oğuzhan koç beni alsalar akor, giden+gunlerim+gitar+tab, giden günlerim oldu oğuzhan koç tab, ouzhan ko giden gnlerim oldu, giden günlerin oldu oğuzhan koç, oğuzhan koç giden günlerim oldu gitarla çalınış, brni alsalar tab
Oğuzhan Koç - Giden Günlerim Oldu için Kullanıcı Görüşleri

beğenmedim ya :(


Bu Yoruma Cevap Ver
alperen6767 | 19 Şubat 2012 Pazar 12:14
<p><em>g&uuml;zel olmuş..."/fck/editor/images/smiley/msn/wink_smile.gif" alt=""/></em></p>


Bu Yoruma Cevap Ver
Anl.Drsn | 12 Mayıs 2011 Perşembe 17:08
ya sacmalamayın süper olmus fakat teller ters yazıldıgı için karıştırmışsınız siz . Doğru düzgün çalın şu gitarı .


Bu Yoruma Cevap Ver
Ayse Sewm | 05 Aralık 2010 Pazar 22:16
bu tab ters değilmi yaa...


Bu Yoruma Cevap Ver
bigbigmen | 25 Eylül 2009 Cuma 13:51
Bu arada kalın tel yanı en ust Mİ telinden başlanacak....


Bu Yoruma Cevap Ver
grupmeze | 07 Eylül 2009 Pazartesi 21:21
Gitara yenı başlamışsınız sanırım akorların ters yaptıysam duzelt o kadarda cevıremıcek durumdaysan ya gıtarı bırak yada daha fazla çalış bu arada bu akorlar kesınlıkle dogrudur....


Bu Yoruma Cevap Ver
grupmeze | 07 Eylül 2009 Pazartesi 21:16
hiç iyi değil. ne tellerin sırasını dogru yazmıssın. ne melodi dolgun. olmamıs yani :P


Bu Yoruma Cevap Ver
gitaryolcusu | 07 Eylül 2009 Pazartesi 13:00
kardeş ellerıne saglık super olmuş...
karızma arkadaş bu yorumunla ztn karızmayı çizmişsın sen eger bu tablarla calamıyorsan bence sen ztn gıtar calmayı bılmıyorsun hiç başlama kı gitarı bıraktıgın gun olmasın :d:d:d


Bu Yoruma Cevap Ver
Ooopusss | 10 Ağustos 2009 Pazartesi 11:42
gitarı bıraktığın gün haber ver bunu kutlayalım


Bu Yoruma Cevap Ver
karizma1479 | 04 Ağustos 2009 Salı 14:57
güzel olmuş kardeş ama keşke

E
B
G
D
A
E
sırasıyla yazsaydın tabı öle daha kolay olurdu bazı yeni arkadaşlar tahminimce sırayı yanlış anlıo hep bu sıraya alıştıkları için sonrada tabı yanlış sanıyorlar.


Bu Yoruma Cevap Ver
dj eroll | 12 Haziran 2009 Cuma 20:18
teşekkur ederım arkadaşlar yardımım dokunduysa ne mutlu bana....


Bu Yoruma Cevap Ver
grupmeze | 07 Haziran 2009 Pazar 15:12
elinize sağlık çok güzel olmş


Bu Yoruma Cevap Ver
deniss_15 | 07 Haziran 2009 Pazar 10:22
harikasın çok saol dostumm


Bu Yoruma Cevap Ver
game over | 05 Haziran 2009 Cuma 18:26
03 Haziran 2009 Çarşamba tarihinde 363__ yazmıştı:
<strong>ger&ccedil;ekten berbat olmuş</strong> "/fck/editor/images/smiley/msn/tounge_smile.gif" alt=""/>
Çalamıyorum demiyorsunuzda akorlar iğrenç dıyorsunuz oda guzel akorlar kesinlikle dogrudur kapo 2 veya 3 olarakta kullanabılırsınız bu arada kaponun ne oldugunu bılıyorsunuzdur umarım ....


Bu Yoruma Cevap Ver
grupmeze | 04 Haziran 2009 Perşembe 11:22
Yaşın dolayısıyla cevap bıle verme geregı duymuyorum eger bu akorlara yanlış dıyorsan gitarı bırak çünkü kesınlıkle dogrudur akorlar....
kapo 2 veya 3 ten çalarsanızda iyi duruyor ...


Bu Yoruma Cevap Ver
grupmeze | 04 Haziran 2009 Perşembe 11:15
<strong>ger&ccedil;ekten berbat olmuş</strong> "/fck/editor/images/smiley/msn/tounge_smile.gif" alt=""/>


Bu Yoruma Cevap Ver
363__ | 03 Haziran 2009 Çarşamba 21:56
bnce hepsi tamamıyla yanlış iğrenç olmuş


Bu Yoruma Cevap Ver
363__ | 03 Haziran 2009 Çarşamba 21:55
bunun girişindeki kısmı da bi yazabilirsen çok iyi olur,ellerine sağlık..


Bu Yoruma Cevap Ver
black__wolf | 20 Nisan 2009 Pazartesi 16:05
E---3----------------3----1---3----------3----1----0----------
A------0---2---0--------------------0---------------------------
D----------------------------------------------------------3-------------
G---------------------------------------------------------------
B---------------------------------------------------------------
E---------------------------------------------------------------

DİLE GELMEDEN DÜŞLERİM YALNIZLIĞA

burda ufak bi yanlış yazmışım arkdaşlar kusura bakmayın şimdi kontrol ederken gordum bu şekılde yaparsanız daha dogru olur


Bu Yoruma Cevap Ver
grupmeze | 19 Nisan 2009 Pazar 13:38
şarkının arasında ki solo cıkardıgım kadarıyla soyle

E--1-0-1--3--11--00---------
B------------------------3-3--1

B--5-3-5--6--55-33-----------
G------------------------5-5--3

G--7-5-7--9-5-3-2


Bu Yoruma Cevap Ver
ESAS_MECAZ | 18 Nisan 2009 Cumartesi 22:13
güzel olmuş
eline saglık


Bu Yoruma Cevap Ver
ESAS_MECAZ | 18 Nisan 2009 Cumartesi 22:10


Siz de Görüş Bildirin

Yorum yazma alanı Akor Merkezi üyelerine özel bir bölümdür. (Giriş Yap / Üye Ol / Şifremi Hatırlat)




Anket
0uzchen soruyor:
Hangisi Daha İyi?







Sonuçlar | Sonuçlar & Yorumlar
Yeni Anket | Anketler




Radyo Dinle
AkorMerkezi.com © 2019
Gizlilik Politikası - Kullanım Koşulları - Kurallar - Son Yorumlar - Rastgele

GitarAkor.com kolonisidir. Derleme 0,06 saniye.