Akor Tab Söz Çeviri Anasayfası
Akor|Tab|Söz|Nota Arşivi
Gitar Akorları | Tab,Söz ve Nota Anasayfası | En Yeni Şarkılar | En Popüler Şarkılar | Akor Cetveli

Bilgiler
 
Seslendiren ve Şarkı: Oğuzhan Koç - Giden Günlerim Oldu
Biçim: TAB - SOLO
Tarih: 11 Haziran 2009 Perşembe
Gönderen: Gitarist_Serkan
Toplam Okuyan: 7.615 kişi
Bu Ay Okuyan: 108 kişi
Bu Hafta Okuyan: 7 kişi
 
Beğendiniz mi? Giden Günlerim Oldu Tab sayfasını Şimdi paylaşın:

Oğuzhan Koç - Giden Günlerim Oldu - Tab

  (versiyon 4)
Puanlama:
 (11 kişi)

Giden Günlerim Oldu şarkısının diğer versiyonlarına bakın >>

Metin boyutu: ( + Büyült ) ( - Küçült)   
GİDEN GÜNLERİM OLDU  -  OĞUZHAN KOÇ   (TAB)

1. Bölüm

GİDEN GÜNLERİM OLDU  SENİ ANMADIM  YOLA BAKMADIM HALA 

E----------------------------------------------
A---0-0-8-7-5-3-5---3-5-7-5-3---1-3-5-3-1-3/5-5
D----------------------------------------------
G----------------------------------------------
B----------------------------------------------
E----------------------------------------------

DİLE  GELMEDEN   DÜŞLERİM  YALNIZLIĞA
           
E----------------------------------------------
A---3-5-7-5-3---1-3-5-3-1-0-1------------
D----------------------------------------------
G----------------------------------------------
B----------------------------------------------
E----------------------------------------------

SUSMAMDA YETERDİ SON VERMEM İÇİN  HAYATIMA            
        
E----------------------------------------------
A---0-1-3-5-7-3-1-0-0-----0--------------
D------------------------------------2--4s-----
G----------------------------------------------
B----------------------------------------------
E----------------------------------------------

             ************************   

2. Bölüm  (Üst Kısımla Aynı)

      
TÜM GÜNLERİM  SOLDU    SANA   ATMADIM   TARAF  OLMADIM  ASLA
DİLE   GELMEDEN   DÜŞLERİM   YALNIZLIĞA
GÜLMEMDE YETER Dİ  GERİ GELMEM İÇİN HAYATIMA

             ************************

3. Bölüm  NAKARAT


BENİ ALSALAR  İPE KOYSALAR 

E----------------------------------------------
A---5-7-8-7-8---5-7-8-7-8----------------
D----------------------------------------------
G----------------------------------------------
B----------------------------------------------
E----------------------------------------------

DAYANAMAZ YİNE  KADERE SALSALAR

E—---------------------------------------------
A---7-10-8-7-5-7-3-5-7-7-8/7-------------
D----------------------------------------------
G----------------------------------------------
B----------------------------------------------
E----------------------------------------------

GÖNLÜM ARIYOR TİTRİYORUM BAK 

E----------------------------------------------
A---5-5-5-3-1--5-5-5-3-1-0---------------
D----------------------------------------------
G----------------------------------------------
B----------------------------------------------
E----------------------------------------------


            ************************


SIRA GELMEDEN  GİDEMEM Kİ BEN  

E----------------------------------------------
A---5-7-8-7-8---5-7-8-7-8----------------
D----------------------------------------------
G----------------------------------------------
B----------------------------------------------
E----------------------------------------------

TUTAMAZ ELLERİM  SENİ GÖRMEDEN

E—---------------------------------------------
A---7-10-8-7-5-7-3-5-7-7-8s/7------------
D----------------------------------------------
G----------------------------------------------
B----------------------------------------------
E----------------------------------------------


ZAMAN GEÇİYOR BEKLİYORUM BAK

E----------------------------------------------
A---5-5-5-3-1--5-5-5-3-1-0---------------
D----------------------------------------------
G----------------------------------------------
B----------------------------------------------
E----------------------------------------------


Orijinal ton ile aynıdır... Umarım beğenirsiniz!


Giden Günlerim Oldu Tab, AkorMerkezi.com'da yayınlanmıştır.
http://www.akormerkezi.com


İçerik Kısa Linki:


Beğendiniz mi? Giden Günlerim Oldu Tab sayfasını Şimdi paylaşın:


Giden Günlerim Oldu Tab için Komoçotoko'dan Gelenler
Aramalar: oguzhan kocbeni alsalar ipe koysalar indir, oğuzhan koç beni alsalar indir, benı alsalar ıpe koysalar oguzhan koc indir, oğuzhan koç ipe koysalar gitar, oguzhan koc gidemem solo indir, beni alsalar gitar tab, giden günlerim oldu solo, Oğuzhan koç ipe koysalar indir, oğuzhan koç beni alsalar dinle, beno alsalar ipe koysalar gitar solo
Oğuzhan Koç - Giden Günlerim Oldu için Kullanıcı Görüşleri

sadece ilk bölüme baktı mçok güzel olmuş devamını da çalacağım eline sağlık baba=)


Bu Yoruma Cevap Ver
tnhn07 | 08 Eylül 2009 Salı 15:36
çoook güzel olmus (: emeğinize sağlık (:


Bu Yoruma Cevap Ver
mervedamar | 02 Temmuz 2009 Perşembe 23:21
Süper olmuş sağolasın.Gitara yeni başladım hiç zorlanmadan çalabiliyorum


Bu Yoruma Cevap Ver
SilverHead | 02 Temmuz 2009 Perşembe 15:17
Teşekkür ederim gayet güzel olmuş kulağına sağlık!:D


Bu Yoruma Cevap Ver
oguzhan11 | 24 Haziran 2009 Çarşamba 10:15
Gerçekten çok güzel...."/fck/editor/images/smiley/msn/thumbs_up.gif" alt=""/>"/fck/editor/images/smiley/msn/regular_smile.gif" alt=""/>


Bu Yoruma Cevap Ver
ece nur | 18 Haziran 2009 Perşembe 16:47
Rica ederim ;)


Bu Yoruma Cevap Ver
Gitarist_Serkan | 16 Haziran 2009 Salı 15:18
sen bir har,kasın ya böle bişi yok çok saoll babaaa süper olmuş bea


Bu Yoruma Cevap Ver
samet71 | 16 Haziran 2009 Salı 12:51


Siz de Görüş Bildirin

Yorum yazma alanı Akor Merkezi üyelerine özel bir bölümdür. (Giriş Yap / Üye Ol / Şifremi Hatırlat)


Anket
~mediş soruyor:
T&t Sisters Elektro Gitarlar İyi Mi?










Sonuçlar | Sonuçlar & Yorumlar
Yeni Anket | Anketler




Radyo Dinle
AkorMerkezi.com © 2019
Gizlilik Politikası - Kullanım Koşulları - Kurallar - Son Yorumlar - Rastgele

GitarAkor.com kolonisidir. Derleme 0,03 saniye.