Akor Tab Söz Çeviri Anasayfası
Akor|Tab|Söz|Nota Arşivi
Gitar Akorları | Tab,Söz ve Nota Anasayfası | En Yeni Şarkılar | En Popüler Şarkılar | Akor Cetveli

Bilgiler
 
Seslendiren ve Şarkı: Oğuzhan Koç - Giden Günlerim Oldu
Biçim: TAB - SOLO
Tarih: 27 Haziran 2009 Cumartesi
Gönderen: sumeyya
Toplam Okuyan: 8.838 kişi
Bu Ay Okuyan: 137 kişi
Bu Hafta Okuyan: 15 kişi
 
Beğendiniz mi? Giden Günlerim Oldu Tab sayfasını Şimdi paylaşın:

Oğuzhan Koç - Giden Günlerim Oldu - Tab

  (versiyon 5)
Puanlama:
 (28 kişi)

Giden Günlerim Oldu şarkısının diğer versiyonlarına bakın >>

Metin boyutu: ( + Büyült ) ( - Küçült)   
E----------------------------------------------------------    
B----------------------------------------------------------
G----------------------------------------------------------
D-------3-2-0---0-------0-2-0-------------0---------0-0----
A--0-0--------3-------3--------3-----1-3-----3-1-----------
E---------------------------------------------------
giden günlerim oldu  seni anmadım   yola bakmadım   hala

E-------------------------------------------------
B-------------------------------------------------
G-------------------------------------------------
D-------0-2-0-------------0-----------------------
A----3--------3-----1-3-----3-1-0-1---------------
E-------------------------------------------------
dile gelmeden düşlerim yalnızlığa

E----------------------------------------------------      
B----------------------------------------------------
G----------------------------------------------------
D-------------0--0-2---------------------------------
A--0--1-0-1-3---------3-1-0-0---0-0----0-------------
E------------------------------------3---------------
susmanda yeterdi son vermen için hayatıma

E--------------------------------------------------------      
B--------------------------------------------------------
G--------------------------------------------------------
D-------3-2-0---0-------0-2-0-------------0---------0-0--
A--0-0--------3-------3--------3-----1-3-----3-1---------
E--------------------------------------------------------
tüm güllerim soldu sana atmadım taraf olmadım asla

E------------------------------------------------     
B------------------------------------------------
G------------------------------------------------
D-------0-2-0-------------0----------------------
A----3--------3-----1-3-----3-1-0-1--------------
E------------------------------------------------
dile gelmeden düşlerim yalnızlığa

E----------------------------------------------------      
B----------------------------------------------------
G----------------------------------------------------
D-------------0--0-2---------------------------------
A--0--1-0-1-3---------3-1-0-0---0-0----0-------------
E------------------------------------3---------------
gülmende yeterdi geri gelmem için hayata


E-----------------------------------------------------------   
B-----------------------------------------------------------
G-----------------------------0-2---------------------------
D---0-2-3-2-3----0-2-3-2-3--3------2-0-2----0-2-2-3-2-0-----
A-----------------------------------------3--------------3--
E-----------------------------------------------------------
beni alsalar ipe koysalar dayanamaz yine kadere salsalar


E----------------------------------------------------      
B----------------------------------------------------
G----------------------------------------------------
D---2-2-0---------0-0-0------------------------------
A----------3-1-----------3-1-0-----------------------
E----------------------------------------------------
gönlüm arıyor titriyorum bak


E-----------------------------------------------------------     
B-----------------------------------------------------------
G----------------------------2-0----------------------------
D---0-2-3-2-3----0-2-3-2-3--------2-0-2----0-2-2-3-2-0------
A-----------------------------------------3--------------3--
E-----------------------------------------------------------
sıra gelmeden gidemem ki ben tutmaz ellerim seni görmedeen


E----------------------------------------------------      
B----------------------------------------------------
G----------------------------------------------------
D---2-2-0---------0-0-0------------------------------
A----------3-1-----------3-1-0-----------------------
E----------------------------------------------------
zaman geçiyor özlüyorum bak

devamı aynen gidiyo arkadaşlar umarım beğenirsiniz


Giden Günlerim Oldu Tab, AkorMerkezi.com'da yayınlanmıştır.
http://www.akormerkezi.com


İçerik Kısa Linki:


Beğendiniz mi? Giden Günlerim Oldu Tab sayfasını Şimdi paylaşın:


Giden Günlerim Oldu Tab için Komoçotoko'dan Gelenler
Aramalar: oğuzhan koç tab, oguzhan koc giden gunlerim oldu, gece yolcuları, oğuzhan koç, giden günlerim oldu akor ver 3, giden günlerim tab, oğuzhan koç giden günlerim oldu tab, giden günlerim oldu tab, giden günlerim oldu gitar pro tab, giden
Oğuzhan Koç - Giden Günlerim Oldu için Kullanıcı Görüşleri

harikulade


Bu Yoruma Cevap Ver
Guitarist99 | 22 Ocak 2012 Pazar 20:56
mükemmel olmss!


Bu Yoruma Cevap Ver
Ayse Sewm | 20 Şubat 2011 Pazar 14:36
çok güzel olmuş.


Bu Yoruma Cevap Ver
24081996 | 28 Eylül 2010 Salı 12:49
teşekkür ederim czmbR saolasın..


Bu Yoruma Cevap Ver
sumeyya | 16 Şubat 2010 Salı 18:43
süpersin hemşeri yayınladığın tabların hepsi çok başaılı tebrik ederim


Bu Yoruma Cevap Ver
czmbR | 16 Şubat 2010 Salı 16:39
teşekkürleerr:)


Bu Yoruma Cevap Ver
sumeyya | 07 Aralık 2009 Pazartesi 19:31
çok spr gerçekten eline sağlık tablar doğru


Bu Yoruma Cevap Ver
guitarwars | 06 Aralık 2009 Pazar 12:04
Harika olmuş tebrik ederim..."/fck/editor/images/smiley/msn/wink_smile.gif" alt=""/>


Bu Yoruma Cevap Ver
forza4ever | 18 Ağustos 2009 Salı 14:04
7-9-10-9-10-7-9-10-9-10-12-10-9-7-9-5-5-9-9-9-10-9-7-5-7-7-7-5-3-5-7-7-5-3-2

bide buşekilde neyein isterseniz


Bu Yoruma Cevap Ver
RooT4161 | 03 Ağustos 2009 Pazartesi 00:21
ama şarkının söyleniş tonu ve hecenin eş sayıda olmasından dolayı tab aynı oluyor


Bu Yoruma Cevap Ver
sumeyya | 19 Temmuz 2009 Pazar 20:17
tam net cıkıyor güzel ama tüm güllerim soldu olan kısmı en başla aynı gibi daha farklı olabilrmiydi ?


Bu Yoruma Cevap Ver
onlynec | 19 Temmuz 2009 Pazar 14:57
çok teşekkür ederiimm:)


Bu Yoruma Cevap Ver
sumeyya | 15 Temmuz 2009 Çarşamba 14:10
Hmm en orjinali bu gibi geldi bana hem daha kolay diğerlerine göre.. Tşk ederim..


Bu Yoruma Cevap Ver
nar çiçeği | 11 Temmuz 2009 Cumartesi 18:40
süper olmuş tebrikler.


Bu Yoruma Cevap Ver
doan | 07 Temmuz 2009 Salı 15:36


Siz de Görüş Bildirin

Yorum yazma alanı Akor Merkezi üyelerine özel bir bölümdür. (Giriş Yap / Üye Ol / Şifremi Hatırlat)


Anket
Guıtarrrrrrr soruyor:
Cort X2 Nasıldır ?











Sonuçlar | Sonuçlar & Yorumlar
Yeni Anket | Anketler




Radyo Dinle
AkorMerkezi.com © 2019
Gizlilik Politikası - Kullanım Koşulları - Kurallar - Son Yorumlar - Rastgele

GitarAkor.com kolonisidir. Derleme 0,05 saniye.