Akor Tab Söz Çeviri Anasayfası
Akor|Tab|Söz|Nota Arşivi
Gitar Akorları | Tab,Söz ve Nota Anasayfası | En Yeni Şarkılar | En Popüler Şarkılar | Akor Cetveli

Bilgiler
 
Seslendiren ve Şarkı: Oğuzhan Koç - Giden Günlerim Oldu
Biçim: TAB - SOLO
Tarih: 21 Temmuz 2009 Salı
Gönderen: ghost_mert
Toplam Okuyan: 3.187 kişi
Bu Ay Okuyan: 46 kişi
Bu Hafta Okuyan: 4 kişi
 
Beğendiniz mi? Giden Günlerim Oldu Tab sayfasını Şimdi paylaşın:

Oğuzhan Koç - Giden Günlerim Oldu - Tab

  (versiyon 6)
Puanlama:
 (5 kişi)

Giden Günlerim Oldu şarkısının diğer versiyonlarına bakın >>

Metin boyutu: ( + Büyült ) ( - Küçült)   
Giden Günlerim Oldu-TaB......


1----1-0-------|-----0------|-----------------------|-----0------|------------------|
2--------3-1-3-|-1-3---3-1--|----1-3-1------------3-|---3---3-1--|----1-3-1---1-----|
3-2-2----------|------------|-3--------3-----2~3----|------------|--3------3-2--3---|
4--------------|------------|-----------------------|------------|------------------|
5--------------|------------|-----------------------|------------|------------------|
6--------------|------------|-----------------------|------------|------------------|


1--------------------------0--------------------------------------------------------|
2-------------1-3------3------1-----------------------------------------------------|
3--0-2-3-3-3-------------------- 3-3-2---2-2--0-2-----------------------------------|
4-----------------------------------------------------------------------------------|
5-----------------------------------------------------------------------------------|
6-----------------------------------------------------------------------------------|


1----0-1-0-1-|-3-1-0---0-|-------0-0-1-0-------|------------------------------------|
2--3---------|-------3---|--1-3-----------3-1--|---3-3-3-1--------------------------|
3------------|-----------|---------------------|-----------3-2----------------------|
4------------|-----------|---------------------|------------------------------------|
5------------|-----------|---------------------|------------------------------------|
6------------|-----------|---------------------|------------------------------------|

-----BY-----
#__GhOsT__#
#__MERttTT__#
Giden Günlerim Oldu Tab, AkorMerkezi.com'da yayınlanmıştır.
http://www.akormerkezi.com


İçerik Kısa Linki:


Beğendiniz mi? Giden Günlerim Oldu Tab sayfasını Şimdi paylaşın:


Giden Günlerim Oldu Tab için Komoçotoko'dan Gelenler
Aramalar: oğuzhan, oğuzhan koç giden günlerim oldu, oğuzhan koç, oğuzhan koç tab, giden günlerim oldu solo, giden günlerim tab, giden gün, giden, giden günlerim, giden günlerim oldu
Oğuzhan Koç - Giden Günlerim Oldu için Kullanıcı Görüşleri

acayiip sekilde eksik var..


Bu Yoruma Cevap Ver
gitaryolcusu | 07 Eylül 2009 Pazartesi 12:55
:( pek olmamış sanki :(


Bu Yoruma Cevap Ver
smurfywitch | 30 Ağustos 2009 Pazar 23:04
iyi güzel :)


Bu Yoruma Cevap Ver
romantik_shagi2 | 11 Ağustos 2009 Salı 23:49
püüh


Bu Yoruma Cevap Ver
karizma1479 | 04 Ağustos 2009 Salı 15:00


Siz de Görüş Bildirin

Yorum yazma alanı Akor Merkezi üyelerine özel bir bölümdür. (Giriş Yap / Üye Ol / Şifremi Hatırlat)


Anket
furkansi98 soruyor:
Hangisini Dinliyorsunuz ?











Sonuçlar | Sonuçlar & Yorumlar
Yeni Anket | Anketler




Radyo Dinle
AkorMerkezi.com © 2019
Gizlilik Politikası - Kullanım Koşulları - Kurallar - Son Yorumlar - Rastgele

GitarAkor.com kolonisidir. Derleme 0,03 saniye.