Akor Tab Söz Çeviri Anasayfası
Akor|Tab|Söz|Nota Arşivi
Gitar Akorları | Tab,Söz ve Nota Anasayfası | En Yeni Şarkılar | En Popüler Şarkılar | Akor Cetveli

Bilgiler
 
Seslendiren ve Şarkı: Oğuzhan Koç - Giden Günlerim Oldu
Biçim: TAB - HİÇBİRİ
Tarih: 25 Mart 2012 Pazar
Gönderen: Melik Can
Toplam Okuyan: 2.867 kişi
Bu Ay Okuyan: 120 kişi
Bu Hafta Okuyan: 7 kişi
 
Beğendiniz mi? Giden Günlerim Oldu Tab sayfasını Şimdi paylaşın:

Oğuzhan Koç - Giden Günlerim Oldu - Tab

  (versiyon 8)
Puanlama:
 (9 kişi)

Giden Günlerim Oldu şarkısının diğer versiyonlarına bakın >>

Metin boyutu: ( + Büyült ) ( - Küçült)   
Not : bu tab 5.versiyonun kendimce değiştirilmiş şeklidir...


E-------3-2-0---0-------0-2-0-------------0---------0-0----
B--0-0--------3-------3--------3-----1-3-----3-1-----------
G---------------------------------------------------
giden günlerim oldu  seni anmadım   yola bakmadım   hala


E-------0-2-0-------------0-----------------------
B----3--------3-----1-3-----3-1-0-1---------------
G-------------------------------------------------
dile gelmeden düşlerim yalnızlığa


E-------------0--0-2---------------------------------
B--0--1-0-1-3---------3-1-0-0---0-0----0-------------
G------------------------------------2---------------
susmanda yeterdi son vermen için hayatıma

E-------3-2-0---0-------0-2-0-------------0---------0-0--
B--0-0--------3-------3--------3-----1-3-----3-1---------
G--------------------------------------------------------
tüm güllerim soldu sana atmadım taraf olmadım asla


E-------0-2-0-------------0----------------------
B----3--------3-----1-3-----3-1-0-1--------------
G------------------------------------------------
dile gelmeden düşlerim yalnızlığa

E-------------0--0-2---------------------------------
B--0--1-0-1-3---------3-1-0-0---0-0----0-------------
G------------------------------------2---------------
gülmende yeterdi geri gelmem için hayata



E---0-2-3-2-3----0-2-3-2-3----3-5-3-2-0-2----0-2-2-3-2-0----
B-----------------------------------------3--------------3--
G-----------------------------------------------------------
beni alsalar ipe koysalar dayanamaz yine kadere salsalar



E---2-2-0---------0-0-0------------------------------
B----------3-1-----------3-1-0-----------------------
G----------------------------------------------------
gönlüm arıyor titriyorum bak



E---0-2-3-2-3----0-2-3-2-3----3-5-3-2-0-2----0-2-2-3-2-0----
B-----------------------------------------3--------------3--
G-----------------------------------------------------------
sıra gelmeden gidemem ki ben tutmaz ellerim seni görmedeen



E---2-2-0---------0-0-0------------------------------
B----------3-1-----------3-1-0-----------------------
G----------------------------------------------------
zaman geçiyor özlüyorum bak


----- Melik Can Sarıyer -----
Giden Günlerim Oldu Tab, AkorMerkezi.com'da yayınlanmıştır.
http://www.akormerkezi.com


İçerik Kısa Linki:


Beğendiniz mi? Giden Günlerim Oldu Tab sayfasını Şimdi paylaşın:


Giden Günlerim Oldu Tab için Komoçotoko'dan Gelenler
Aramalar: oğuzhan koç giden günlerim oldu, giden günlerim oldu versyon 8 tab, giden gunlerim oldu tab 7, giden günlerim oldu, giden gunlerim oldu tab ver 8, oğuzhan koç giden günlerim oldu akor orjinal, gidrn gunlerim tab, giden günlerim oldu tab, beni alsalar tab, beni alsalar akor ver 2
Oğuzhan Koç - Giden Günlerim Oldu için Kullanıcı Görüşleri

kardeşim ellerine emeğine sağlık süper muhteşem olmuş :)


Bu Yoruma Cevap Ver
Eniscan | 28 Mart 2012 Çarşamba 19:49


Siz de Görüş Bildirin

Yorum yazma alanı Akor Merkezi üyelerine özel bir bölümdür. (Giriş Yap / Üye Ol / Şifremi Hatırlat)


Anket
Furkanka soruyor:
Hangi gitar en iyisi ?









Sonuçlar | Sonuçlar & Yorumlar
Yeni Anket | Anketler




Radyo Dinle
AkorMerkezi.com © 2019
Gizlilik Politikası - Kullanım Koşulları - Kurallar - Son Yorumlar - Rastgele

GitarAkor.com kolonisidir. Derleme 0,05 saniye.